Oops, an error
Loading. Please wait.

Lights Bass Tab

by Styx
551 views 1 this week
no commentswrite comment
1 2 3 4 5
please rate
add to favorites
launch autoscroll
font size
0
reset
guitar tuner
Tab Pro tools
  • play this tab
  • loop segment
  • change instrument
  • show fretboard
  • metronome
×
Best way to learn
"Lights"
Autoscroll
slow
fast
+/-
esc
set tempo
stop
Contributor
standard tuning

:02
G|---------------------------------------------------------------------|
D|-------------------7--6---------------------------------7--6---------|
A|-------------------------9----5--5-5--------------------------9----8-|
E|-5--5--5--5--5--5---------------------5--5--5--5--5--5---------------|

:25
G|---------------------------------------------------------------------------|
D|-7---7-7---7-7---7-------7-7-----7-7-6-------------7-7-----7-6-------------|
A|---------------------------------------9----5------------------9----5--5-5-|
E|----------------------5-------5-----------------5-------5------------------|

1:00
G|-----------------------------------------------------------|
D|---------------------------5-----7-7-----7-7-6-------------|
A|-10--9--7--5-5-5--9--7--5----------------------9----5--5-5-|
E|------------------------------5-------5--------------------|

1:24
G|---------------------------------------------------------------------|
D|----7-7-----7-7-6----------------------------------------5-----4-6---|
A|------------------9----5--5-5--10--9--7--5-5-5--9--7--5------7-----7-|
E|-5-------5-----------------------------------------------------------|

1:52
G|---------------------------------------------------------------------|
D|-------------------7--6---------------------------------7--6---------|
A|-------------------------9----5--5-5--------------------------9----8-|
E|-5--5--5--5--5--5---------------------5--5--5--5--5--5---------------|

2:17
G|--------------------------------------------------------------------------|
D|------------------------------------7-----7-----7-----7-----7-----7-----7-|
A|-8-8-8-8-8-8-8-8-8-8-8-8----8-8-------------------------------------------|
E|---------------------------------5-----5-----5-----5-----5-----5-----5----|

2:35
G|--------------------------------------------------------|
D|-----7-----7-----7-----7-----7-----7-----7-----7------7-|
A|--------------------------------------------------------|
E|-55-----5-----5-----5-----5-----5-----5-----5-----55----|

2:47
G|----7-----7-----7------7-----7----7-----7-----7-|
D|------------------------------------------------|
A|-5-----5-----5-----55-----5----5-----5-----5----|
E|------------------------------------------------|

2:57
G|-------------------------------------------------------------------------------|
D|----7-----7-----7------7-----7-----7-----7------7--------------5---------------|
A|---------------------------------------------------8-------8-----------8-10-10-|
E|-5-----5-----5-----55-----5-----5-----5-----55--------8--8---8----8--8---------|

3:13
G|--------------------------------------------------|
D|----7-----7-----7------7--------------5---5-5-5-5-|
A|--------------------------8-------8---------------|
E|-5-----5-----5-----55--------8--8---8-------------|

3:23
G|---------------------------------------------------------------------|
D|-------------------7--6---------------------------------7--6---------|
A|-------------------------9----5--5-5--------------------------9----8-|
E|-5--5--5--5--5--5---------------------5--5--5--5--5--5---------------|

3:46
G|----------------------------------------------------------------|
D|-------------------7--6---------------------------------7--6----|
A|-------------------------9----5--5-5--------------------------9-|
E|-5--5--5--5--5--5---------------------5--5--5--5--5--5----------|

4:05 repeat until end
G|--------|
D|--------|
A|-5--5-5-|
E|--------|
comments
We did not receive enough feedback on this tab! Please rate:
print report bad tab
1 2 3 4 5
I want to post or [tab]
guest
You may want to rate the tab now too:
select rating
Please do not post tabs as comments. Select "correction" instead!