Oops, an error
Loading. Please wait.

Lord Of The Rings Bass Tab

by Styx
515 views 3 this week
no commentswrite comment
1 2 3 4 5
please rate
add to favorites
launch autoscroll
font size
0
reset
guitar tuner
Autoscroll
slow
fast
+/-
esc
set tempo
stop
Help us to improve Ultimate-Guitar.com Take our survey!
×
Author
standard tuning

:00 
G|----------------------------------|
D|----------------------------------|
A|-8---8-7-6---6-5-4------4-4---4-3-|
E|--------------------4--4----4-----|

:12
G|--------------------------------------------|
D|--------------------------------------------|
A|-8---8-7-6---6-5-4------4-4---4-3-3-3-3-3-3-|
E|--------------------4--4----4---------------|

:24 x2
G|--------------------------------------------------------------|
D|-----------------------------------77----9----99----9---------|
A|-8--7-5-3---8--7-5--------------5------7---7------7------1--3-|
E|-------------------5---3--1--0------------------------5-------|

1:13 
G|----------------------------------|
D|----------------------------------|
A|-8---8-7-6---6-5-4------4-4---4-3-|
E|--------------------4--4----4-----|

1:25
G|----------------------------------------------------|
D|----------------------------------------------------|
A|-8---8-7-6---6-5-4------4-4---4-3-3-3-3-3-3----4--4-|
E|--------------------4--4----4-----------------------|

1:40 x6         1:58                2:01 x7
G|----------|   G|--------------|   G|----------|
D|-6-4------|   D|-6-4----------|   D|-6-4------|
A|-----4--4-|   A|-----4--4---4-|   A|-----4--4-|
E|----------|   E|--------------|   E|----------|

2:24
G|---------------------------------------------------------------------|
D|-6-4-----------------------------------------------------------------|
A|-----4-4-4-4-4-4-4-4-4-4-4-4-4-4-4-4-5-5-5-5-5-5-5-5-5-5-5-5-5-5-5-5-|
E|---------------------------------------------------------------------|

2:43                                   2:59 x5
G|---------------------------------|   G|---------|
D|---------------------------------|   D|---------|
A|-5------------5------------5---5-|   A|-5-4-2-0-|
E|----2--3--5------2--3--5---------|   E|---------|

3:04
G|-------------------------------------------------------------------------|
D|---------------5-4-2----5-4-2--------------------------1111----11--------|
A|-0-000-0-0--5--------5--------2-------------77----7-9--------9----2--3-5-|
E|---------------------------------5---3-2-0------7------------------------|

3:33 x2
G|--------------------------------|
D|-5--5-4-3-----------------------|
A|-----------8-7-6-------66---6-5-|
E|------------------6--6----6-----|

3:58                                                               4:30
G|--------------------------------------------------------------------|
D|------55------55------55-------------55-----------------------------|
A|---------------------------------------------3--0-------------------|
E|-3-------3-------3-------3------3-------3----------3--2--3-------33-|
Suggest correction
Give kudos to tab author, rate the tab!
1 2 3 4 5
comments
print report bad tab
guest
You may want to rate the tab now too:
select rating
Please do not post tabs as comments. Select "correction" instead!