Oops, an error
Loading. Please wait.

Renegade Tab

version 1
version 1

Whole song

Interactive

by Styx
114,139 views 180 this week
17 commentsread comments
1 2 3 4 5
excellent!
x 37
add to favorites
launch autoscroll
font size
0
reset
how to read this tab
guitar tuner
Autoscroll
slow
fast
+/-
esc
set tempo
stop
Help us to improve Ultimate-Guitar.com Take our survey!
×
Author
RENEGADE  by: STYX

Tab by: Aaron Meredith

Standard tuning: (E-A-D-G-B-e)


[Intro]

(singing only)


[Chorus]

e|---------------------------------------------------------|
B|---------------------------------------------------------|
G|----------------3--5--------3--5--------3--5--5~---3~----|
D|---------3---5--3--5--3--5--3--5--3--5--3--5--5~---3~----|
A|---------3---5--------3--5--------3--5-------------------|
E|---15\---------------------------------------------------|


e|----------------------------------------------------|
B|----------------------------------------------------|
G|--------3--5--------3--5--------3--5--5~---3~-------|
D|--3--5--3--5--3--5--3--5--3--5--3--5--5~---3~-------|
A|--3--5--------3--5--------3--5-------------------0--|
E|----------------------------------------------------|

e|---------------------------------------------|
B|--3-3-3---5-5--6-6~------------3-3--5-5~-----|
G|--3-3-3---5-5--7-7~----3-3-3---3-3--5-5~-----|
D|-----------------------5-5-5-----------------|
A|---------------------------------------------|
E|---------------------------------------------|


[Last part]

e|-----------------------------------------------|
B|-----------------------------------------------|
G|--------3--5--------3--5--------3--5--5/7~-----|
D|--3--5--3--5--3--5--3--5--3--5--3--5--5/7~-----|
A|--3--5--------3--5--------3--5-----------------|
E|-----------------------------------------------|


[Verse]

Guitar 1
e|-----------------------------------------------------------------|
B|-----------------------------------------------------------3~----|
G|------3~--2--0--2--3--3~--2--0--2--3--3--3--3----3~--2--0--3~----|
D|------3~--2--0--2--3--3~--2--0--2--3--3--3--3----3~--2--0--5~----|
A|-----------------------------------------------------------------|
E|--3--------------------------------------------------------------|(x4)


[Verse] 

Guitar 2

e|-----------------------------------------------------------3~----|
B|-----------------------------------------------------------3~----|
G|------3~--2--0--2--3--3~--2--0--2--3--3--3-------3~--2--0--------|
D|------3~--2--0--2--3--3~--2--0--2--3--3--3-------3~--2--0--------|
A|---------------------------------------------3~------------------|
E|--3--------------------------------------------------------------|(x4)

(Verse Riff 1)

e|---3~--6p3--3----------------------|
B|---------------6p3--3--------------|
G|-----------------------5b~r-p3p0---|
D|-----------------------------------|
A|-----------------------------------|
E|-----------------------------------|

(Verse Riff 2)

e|---3~--6p3--3----------------------------|
B|---------------6p3--3--------------------|
G|-----------------------5-p3-p0-----------|
D|--------------------------------5-p3-p0--|
A|-----------------------------------------|
E|-----------------------------------------|


(Verse Riff 3) (repeat riff 1)


(Verse Riff 4)

e|---3~------------------------------------------------|
B|---------6p3--3--------------------------------------|
G|-----------------5-p3-p0--5-p3-p0--5-p3-p0-----------|
D|--------------------------------------------5-p3-p0--|
A|-----------------------------------------------------|
E|-----------------------------------------------------|


[Repeat Chorus] (w/ different last part)

(Last part)

e|---------------------------------------------|
B|---------------------------------------------|
G|--------3--5--------3--5--------3--5--3~-----|
D|--3--5--3--5--3--5--3--5--3--5--3--5--3~-----|
A|--3--5--------3--5--------3--5---------------|
E|---------------------------------------------|


[Solo]

e|-------3---3--------------------------------------------------------------|
B|-----3--6p3--6--3---------------------------------------------------------|
G|-5b---------------5br--3--5p3p0--5--0-------------------------------------|
D|--------------------------------------5p3p0--5-5-5p3p0--------------------|
A|------------------------------------------------------5-4-3---------------|
E|------------------------------------------------------------6-3---0--1--2-|

e|----------------------------------------------------------------------|
B|----------------------------------------------------------------------|
G|--5br-p3h5p3---------------------5br--3-------------------------------|
D|-------------5~-\w-----w/----------------5p3--------------------------|
A|---------------------------------------------5\3----1----1------------|
E|-------------------------------------------------------------3p1--3~--|

e|------------------------------------------------------------------------3-|
B|------------------------------------------------------------------w/6-----|
G|--------------------------3-----5-----3~----3h5--5/7--7br~---7w\----------|
D|--------------------3--5-----5-----5--------------------------------------|
A|------------1--3/5--------------------------------------------------------|
E|-3----1--3----------------------------------------------------------------|

e|3------3--6--3------------------------------------------------------------|
B|--6b~----------6b~r---6-3--6p3---6--3-------------------------------------|
G|-------------------------------5-5-----5p3-------3------------------------|
D|-------------------------------------------5-3-5---5p3--------------------|
A|-------------------------------------------------------5\3p1--3b----------|
E|-----------------------------------------------------------------0~w\--w/3|

e|-----------------------15--------15--18p15--15--18p15-----15-18p15--15----|
B|----------------3-3/15---15-18b~---15-----15--15-----15-18b~------15--18p15
G|-----------3~w\-----------------------------------------------------------|
D|-------3-5----------------------------------------------------------------|
A|1---5---------------------------------------------------------------------|
E|--0-----------------------------------------------------------------------|

e|-----15-------15-18p15--15---15-----15---15-18p15--15--------------------------|
B|---15--15-18b~--------15-------18p15--18b~-------15--18-15---------------------|
G|17b~----------------------17b~----------------------------17b~-17-15-----------|
D|--------------------------------------------------------------------17p15-17-15|
A|-------------------------------------------------------------------------17-17-|
E|-------------------------------------------------------------------------------|

e|-------------------------------------------------------------------------------|
B|--------------------------------------------------------------------------18-20|
G|----------------------------------------------------------17--15-17b~r--19-----|
D|----------------------------------------------------15-17-17-------------------|
A|17-16-15\13-15br~-13-15p13--15--13--------13--15/17----------------------------|
E|--------------------------15--15--15p13-15-------------------------------------|

e|18-20-20-20-18-20b~-18---------20b~-20b~-20b~-20brp18-20-18-20-18-20br-20b~20b~|
B|---20-20-20-----------20~-20-18------------------------------------------------|
G|-------------------------------------------------------------------------------|
D|-------------------------------------------------------------------------------|
A|-------------------------------------------------------------------------------|
E|-------------------------------------------------------------------------------|


[Interlude]

e|-------------|------------------------------------------------|
B|-------------|---12~--10-8-10-12-12~--10-8-10-12~--12~--------|
G|-----3--5~---|---11~--10-8-10-11-11~--10-8-10-11~--11~--------|
D|--5--3--5~---|------------------------------------------------|
A|--5--1--3~---|------------------------------------------------|
E|--3----------|------------------------------------------------|

e|-------------|------------------------------------------------|
B|-------------|---12~--10-8-10-12-12~--10-8-10-12~--12\--------|
G|-----3--5~---|---11~--10-8-10-11-11~--10-8-10-11~--11\--------|
D|--5--3--5~---|------------------------------------------------|
A|--5--1--3~---|------------------------------------------------|
E|--3----------|------------------------------------------------|


e|------------|----------------------------------|
B|------------|---7~--5-3-5-7-7~--5-3-5-7~\------|
G|-----3--/7~-|---7~--5-3-5-7-7~--5-3-5-7~\------|
D|--5--3--/7~-|----------------------------------|
A|--5--1--/5~-|----------------------------------|
E|--3---------|----------------------------------|


e|-------------|-------------------------------|--------|
B|-------------|---7~--5-3-5-7-7~--5-3-5-3~----|--------|
G|--3--5--5/7~-|---7~--5-3-5-7-7~--5-3-5-3~----|--------|
D|--3--5--5/7~-|-------------------------------|---5~---|
A|--1--3--3/5~-|-------------------------------|---5~---|
E|-------------|-------------------------------|---3~---|

(Repeat as needed)

************************************

~  = let ring
b  = bend
br = bend & return
/  = slide up
\  = slide down
h  = hammer-on
p  = pull-off
w/ = wammy bar up
w\ = wammy bar down

************************************
Suggest correction
comments
print report bad tab
17 comments total. Showing first comments.
+4 reply
TheNextPage23 10 wrote on September 7 2006, 09:06 pm

EXCELLENT

+5 reply
CrossBack7 76 wrote on May 22 2007, 08:11 pm

I praise you as God. I've been looking for this tab forever.

+3 reply
aron444 708 wrote on June 8 2007, 05:38 pm

Glad it helped.

guest
You may want to rate the tab now too:
select rating
Please do not post tabs as comments. Select "correction" instead!