Oops, an error
Loading. Please wait.

Snowblind Bass Tab

version 2
version 2

Whole song

by Styx
367 views 1 this week
no commentswrite comment
1 2 3 4 5
please rate
add to favorites
launch autoscroll
font size
0
reset
guitar tuner
Autoscroll
slow
fast
+/-
esc
set tempo
stop
Help us to improve Ultimate-Guitar.com Take our survey!
×
Author
-----------------------------------------------------------------------------
                              SNOW BLIND - Styx
-----------------------------------------------------------------------------

Tabbed By : teh-funnay

Tuning: EADG    


  INTRO:
G|------------------------------------------------------------|
D|------------------------------------------------------------|
A|------------------------------------------------------------|
E|----------------------------------3-------------------------|

  "Mirror, Mirror..."
G|------------------------------------------------------------------|
D|------------------------------------------------------------------|
A|-----------------1-------3-----------------------1-------3--------| 
E|-3-------1-----------------------3-------1------------------------|   

G|---------------------------------------------------------------------------3-5-3--|
D|-----------------------------------------------------------------------3-5--------|
A|-----------------1-------3-----------------------1-------3-3--3-3--3/5------------|
E|-3-------1-----------------------3-------1----------------------------------------|

  "Now I'm Snow-blind..."
G|--------------------------------------------------------------------|
D|--------------------------------------------------------------------|
A|--------------------------------------------------------------------|
E|-3----3----3-1----1----1-3----3----3-1----1----1-3----3----3-1----1-|

G|----------------------------------------------------------------|
D|-----------------------------------------1----------------------|
A|------------------------------------------------------3--1------|
E|----1-3----3----3-1----1-----3-----1------------------------1---|

  "Harmless and innocent"
G|--------------------------------------------------------------------------3-|
D|---------------------------------1---1----------------------------------3---|
A|---------5---5---------------------------1---1---3-3-3-3-3-3-5-5-5--3/5-----|
E|-3---3-----------3---3---1---1----------------------------------------------|

G|--------------------------------------------------------------------------3-|
D|---------------------------------1---1----------------------------------3---|
A|---------5---5---------------------------1---1---3-3-3-3-3-3-5-5-5--3/5-----|
E|-3---3-----------3---3---1---1----------------------------------------------|


  "Now I'm Snow-blind..."
G|--------------------------------------------------------------------|
D|--------------------------------------------------------------------|
A|--------------------------------------------------------------------|
E|-3----3----3-1----1----1-3----3----3-1----1----1-3----3----3-1----1-|

G|----------------------------------------------------------------|
D|-----------------------------------------1----------------------|
A|----------------------------------------------------------------|
E|----1-3----3----3-1----1-----3-----1----------------------------|



  
Guitar Solo:
G|---------------------------------------------------------|
D|-----------------------1-1-------------------------------|
A|-----------------------------------------------4--3--1---|
E|-3-3--------1-1----------------------------------------1-|


G|-----------------------------------------3---------------------------------------3-|
D|-------------------------------------1-----1-3---------------------------------3---|
A|-------1-3---------------1-3--------------------1---1---3-3-3-3-3-3-5-5-5--3/5-----|
E|-3---3-----1---1---3---3-----1---1-------------------------------------------------|

G|---------------------------------------------0-----------------------------------3-|
D|-------------------------------------1---1-3-----------------------------------3---|
A|-------------------------1-3--------------------1---1---3-3-3-3-3-3-5-5-5--3/5-----|
E|-3---3---3-1---1---3---3-----1---1-------------------------------------------------|

G|---------------------------------------------0-----------------------------------3-|
D|-------------------------------------1---1-3-----------------------------------3---|
A|-------------------------1-3--------------------1---1---3-3-3-3-3-3-5-5-5--3/5-----|
E|-3---3---3-1---1---3---3-----1---1-------------------------------------------------|

  "Now I'm Snow-blind..."
G|--------------------------------------------------------------------|
D|--------------------------------------------------------------------|
A|--------------------------------------------------------------------|
E|-3----3----3-1----1----1-3----3----3-1----1----1-3----3----3-1----1-|

G|------------------------------------------------------------------|
D|-----------------------------------------1------------------------|
A|------------------------------------------------------------------|
E|----1-3----3----3-1----1-----3-----1------------------------------|

                                   :"Mirror, Mirror..."
G|------------------------------------------------------------------|
D|------------------------------------------------------------------|
A|-----------------1-------3-----------------------1-------3--------| 
E|-3-------1-----------------------3-------1------------------------|   

G|-------------------------------------------3-5-3--|
D|---------------------------------------3-5--------|
A|-----------------1-------3-3--3-3--3/5------------|
E|-3-------1----------------------------------------|

  "Yes, I'm Snow-blind..."
G|--------------------------------------------------------------------|
D|--------------------------------------------------------------------|
A|--------------------------------------------------------------------|
E|-3----3----3-1----1----1-3----3----3-1----1----1-3----3----3-1----1-|

G|---------------------------------------------------------------------|
D|---------------------------------------------------------------------|
A|---------------------------------------------------------------------|
E|----1-3----3----3-1----1-----1-3----3----3-1----1----1-3----3----3-1-|

G|---------------------------------------------------------------------|
D|---------------------------------------------------------------------|
A|-------------------------------------------------------------------6-|
E|----1----1-3----3----3-1----1----1-3----3----3-1----1----3----1------|




  Coda(played soft:tempo slows)
G|------------------8---------8---------8---------8---------8-----|
D|----------------------------------------------------------------|
A|-------------6---------6---------6---------6---------6----------|
E|----------------------------------------------------------------|

G|-------8------------8--------------8----------------------------|
D|----------------------------------------------------------------|
A|-6-----------6-------------6------------------------------------|
E|---------------------------------------------3------------------|


| /  slide up
===============================================================================
Suggest correction
What's this?
You can suggest a correction to this tab. Community and Mods will review your correction and vote to approve or reject it.
comments
We did not receive enough feedback on this tab! Please rate:
print report bad tab
1 2 3 4 5
guest
You may want to rate the tab now too:
select rating
Please do not post tabs as comments. Select "correction" instead!