Oops, an error
Loading. Please wait.

Abre Los Cielos Tab

94 views 1 this week
no commentswrite comment
1 2 3 4 5
3 more votes to show rating
add to favorites
launch autoscroll
font size
0
reset
how to read this tab
guitar tuner
×
Best way to learn
"Abre Los Cielos"
Autoscroll
slow
fast
+/-
esc
set tempo
stop
Abre tus cielos su presencia 

En Esta Canción los acordes se hacen en Powerwords [Quintas]


INTRO:
e|--------------------------| x4
B|--------------------------|
G|--------------------------|
D|----------------------5~--|
A|--5-7-7~--5-7-7~--5-7-----| 
E|--------------------------|

e|-----------------------------------------------------| x2
B|--12-13-12----12-13-14----12-13-12~------------------|  
G|-----------------------------------12~-12-11-12-11~--|
D|-----------14~---------13~---------------------------|
A|-----------------------------------------------------|
E|-----------------------------------------------------|

E                 C            G               D
Abre los cielos, derrama fuego, de tu espíritu Dios,
e|--3-3-2--|
B|--3-3-3--|
G|---------|
D|---------|
A|---------|
E|---------|
E                 C            G               D
Abre los cielos, derrama fuego, de tu espíritu Dios.
A                      C                    G
Tu amor es tan grande, que llego hasta el cielo,
                   D
Tan grande es tu bondad.  
e|--3-3-2--|
B|--3-3-3--|
G|--0-0-0--|
D|---------|
A|---------|
E|---------|
                      

A                       C                    G
Tu amor es tan grande, que llego hasta el cielo,
                  D
Tan grande es tu bondad.


CORO:
E                          C
No hay nadie como tu Jesús no hay como tu,
G                          D
Nadie tan maravilloso como tú.
G                           C
No hay nadie como tu Jesús no hay como tu,
G                          D
Nadie tan maravilloso como tú.

[En esta parte utilizo las octavas de D B F#]
    D  B  F#
G|--7--4--11--|
D|------------|
A|--5--2--9---|

D            B            F#
No hay otro, no hay otro, no hay otro Dios,
D            B            F#                     x2
No hay otro, no hay otro, no hay otro Dios. 


e|-----------------------------------------------------| x2
B|--12-13-12----12-13-14----12-13-12~------------------|  
G|-----------------------------------12~-12-11-12-11~--|
D|-----------14~---------13~---------------------------|
A|-----------------------------------------------------|
E|-----------------------------------------------------|


E                 C            G               D
Abre los cielos, derrama fuego, de tu espíritu Dios,
e|--3-3-2--|
B|--3-3-3--|
G|---------|
D|---------|
A|---------|
E|---------|


E                 C            G               D
Abre los cielos, derrama fuego, de tu espíritu Dios.
A                      C                    G
Tu amor es tan grande, que llego hasta el cielo,
                   D
Tan grande es tu bondad,
  
e|--3-3-2--|
B|--3-3-3--|
G|--0-0-0--|
D|---------|
A|---------|
E|---------|                      
A                       C                    G
Tu amor es tan grande, que llego hasta el cielo,
                  D
Tan grande es tu bondad,


CORO...


SOLO:

e|--------------------------|
B|--10~-10~-8--------8h-10~-|
G|-----------9~-7-9---------|
D|--------------------------|
A|--------------------------|
E|--------------------------|

e|-----------------| x3
B|--------16~-15~--|
G|-----15----------|
D|--16-------------|
A|-----------------|
E|-----------------|

e|-------------------------------------| x5
B|--15~13------------------------------|
G|--------14~12-----------------9------|
D|--------------13~-12\10-10-11?11-10--|
A|---------------------------------12--|
E|-------------------------------------|


CORO...
 Saludo a mis pastores Mauricio Bernal y Nancy Ayure
Todos mis líderes de la iglesia Renovación
Suggest correction
Give kudos to tab author, rate the tab!
1 2 3 4 5
comments
print report bad tab
guest
You may want to rate the tab now too:
select rating
Wanna post a correction for this tab? Suggest correction