Oops, an error
Loading. Please wait.

Fuego Tab

120 views 3 this week
no commentswrite comment
1 2 3 4 5
3 more votes to show rating
add to favorites
launch autoscroll
font size
0
reset
how to read this tab
guitar tuner
×
Best way to learn
"Fuego"
Autoscroll
slow
fast
+/-
esc
set tempo
stop
Aquí les va esta buena canción...


Intro: 2 veces

    Am               C                  G              Dm
E-----------8------10s12-10-12-15-12-10----------10-------
B---10-8-10---10-8----------------------12-10-12----12-10-
G---------------------------------------------------------
D---------------------------------------------------------

CORO:
  Am                      C
\Fuego, fuego, que no se apague el fuego
            G                           Dm
Porque este party nunca acaba en mi corazón//

Intro: 1 veces

    Am               C                  G              Dm
E-----------8------10s12-10-12-15-12-10----------10-------
B---10-8-10---10-8----------------------12-10-12----12-10-
G---------------------------------------------------------
D---------------------------------------------------------

  Am                      C
\Fuego, fuego, que no se apague el fuego
            G                           Dm
Porque este party nunca acaba en mi corazón//

  Am      C
\Jesús, Jesús
            G                           Dm
Porque este party nunca acaba en mi corazón//

Dm                 C                  G
 Que tu reino se establezca en esta nación
C-Dm                    C              G
   Que tu fuego no se apague en mi corazón
Bm-C-Dm                 C           G
       Porque hemos decidido adorarte solo a ti
C-Dm                 C           G         F-E
   Porque hemos decidido amarte más mucho más

  Am                      C
\Fuego, fuego, que no se apague el fuego
            G                           Dm
Porque este party nunca acaba en mi corazón//

  Am      C
\Jesús, Jesus
            G                           Dm
Porque este party nunca acaba en mi corazón//

Intro: 1 veces

    Am               C                  G              Dm
E-----------8------10s12-10-12-15-12-10----------10---------------
B---10-8-10---10-8----------------------12-10-12----12-10-10-10-10
G-----------------------------------------------------------------
D-----------------------------------------------------------------
F                   G
Aviva tu Presencia en mi
   C          G    Am
Quebranta este corazón
   F                   G          Am
No quiero hoy vivir sin tu fuego, Señor
    F              G
El fuego de tu sanidad
    C         G      Am
El fuego de pasión en mi
    F                 G               E
El fuego que viene de ti, ardiendo en mi

F-G-C
F-G-C
F-G-C
F-G-Am-Bm

  Am                      C
\Fuego, fuego, que no se apague el fuego
            G                           Dm  2vez(Am)
Porque este party nunca acaba en mi corazón//


Bueno allí esta?
Espero que sea de bendición para ustedes, que el fuego
De Dios descienda sobre todos, saludos a todos
Sugerencias a: danielitovivoxcristo@
O en Facebook: Daniel Baquin.  BENDICIONES¡¡
Suggest correction
Give kudos to tab author, rate the tab!
1 2 3 4 5
comments
print report bad tab
guest
You may want to rate the tab now too:
select rating
Wanna post a correction for this tab? Suggest correction