Oops, an error
Loading. Please wait.

Gracias, Gracias Tab

22 views 1 this week
no commentswrite comment
1 2 3 4 5
3 more votes to show rating
add to favorites
launch autoscroll
font size
0
reset
how to read this tab
guitar tuner
Autoscroll
slow
fast
+/-
esc
set tempo
stop
Help us to improve Ultimate-Guitar.com Take our survey!
×
Intro: (4 veces)

E|--------------------------|-----------------------------|
B|--------------------------|-----------------------------|
G|--------------------------|-----------------------------|
D|--------------------------|-----------------------------|
A|--------------------------|-----------7--5----5--5----6-|
E|--0----0--3---0----0----0-|--(4)---0--------------------|


Punteo Para pasar a la estrofa:
----------------------------|--------------------------|
----------------------------|--------------------------|
----------------------------|--------------------------|
------------------4/5----4--|--(4)--0----2----2--------|
---------------2------------|------------------0----2--|
--0----3----3---------------|--------------------------|

----------------------------|----------------------|
----------------------------|----------------------|
----------------------------|----------------------|
------------------4/5---4---|--(4)--0--------------|
---------------2------------|----------------------|
--0----3----3---------------|----------------------|


Estrofa:

G G A
      Me levantaste del suelo
G G A                              G G A
      Me alimentaste con pan del cielo
                              G G A
      Me sanaste con gran poder
            A               E
      Por siempre te alabaré

(Punteo Para pasar a la estrofa)

(Estrofa)

Coro:

E E    G  E    E G   E E  G   E      D D E
Gracias gracias por todo lo que has hecho
E E    G  E    E G   E E  G   E    D D E
Gracias gracias por todo lo que harás
E E    G  E    E G   E E  G   E
Gracias gracias por todo lo que has hecho Señor
(E D EE D E - E D EE G E) [-- Notas individuales en cuerdas 5 y 4

(ESTROFA)

(CORO)x2

Solo: Guitarra rítmica acompaña en E

Puente: (Gracias gracias, Gracias muchas gracias)

-----------------------------|----------------------------|
-----------------------------|----------------------------|
-----------------------------|----------------------------|
-----------------------------|----------------------------|
--10--7------7---7----7------|----------------------------|
---------10----------------5-|--(5)---5--6---6-7--7-10--7-|

------------------------------|------------------------|
------------------------------|------------------------|
------------------------------|------------------------|
----------------------------7-|--(7)---9---9---12--9---|
--10--7------7---7----10------|------------------------|
---------10-------------------|------------------------|


Final:

    C
//Gracias por morir en la cruz por mí
  F
gracias por amarme hasta morir
Am                           G        F
en tu libertad caminaré por siempre Dios//


Dios los bendiga!
Suggest correction
Give kudos to tab author, rate the tab!
1 2 3 4 5
comments
print report bad tab
guest
You may want to rate the tab now too:
select rating
Wanna post a correction for this tab? Suggest correction