Oops, an error
Loading. Please wait.

Estrella Solitaria Tab

22 views 1 this week
no commentswrite comment
1 2 3 4 5
3 more votes to show rating
add to favorites
launch autoscroll
font size
0
reset
how to read this tab
guitar tuner
Autoscroll
slow
fast
+/-
esc
set tempo
stop
Help us to improve Ultimate-Guitar.com Take our survey!
×
 Am                G        F         G        Am
     Cuando cae la tarde       y se oculta el sol,

   Am
e|-0--------0-----|
B|-1------1---1---|
G|-2----2-------2-|
D|-2--------------|
A|-0--------------|
E|----------------|

 Am               C      G              F
     Todas las montañas    cambian de color.

   F
e|-1--------------|
B|-1--------------|
G|-2--------------|
D|-3--2-3-2-------|
A|-3--------------|
E|-1--------------|

 Am                 G        F        G    Am
    Una estrella solitaria     brilla para mi.

   Am
e|-0--------0-----|
B|-1------1---1---|
G|-2----2-------2-|
D|-2--------------|
A|-0--------------|
E|----------------|

 Am                G        F         G        Am
     Cuando cae la tarde       y se oculta el sol,

                  C      G              F
     Todas las montañas    cambian de color.

   F
e|-1--------------|
B|-1--------------|
G|-2--------------|
D|-3-/7-7-7-------|
A|-3-/7-7-7-6-7-6-|
E|-1--------------|

 Am                 G*       F        G*   Am*
    Una estrella solitaria     brilla para mi

 F         G*   Am*  G*
    brilla para mi.

 F         G*   Am
    brilla para mi.

   Am
e|-0--------0-----|
B|-1------1---1---|
G|-2----2-------2-|
D|-2--------------|
A|-0--------------|
E|----------------|


   Am           G           F           C
e|--0--|    e|--3--|    e|--1--|    e|--0--|
B|--1--|    B|--0--|    B|--1--|    B|--1--|
G|--2--|    G|--0--|    G|--2--|    G|--0--|
D|--2--|    D|--0--|    D|--3--|    D|--2--|
A|--0--|    A|--2--|    A|--3--|    A|--3--|
E|--X--|    E|--3--|    E|--1--|    E|--0--|


   Am*         G*
e|--5--|    e|--3--|
B|--5--|    B|--3--|
G|--5--|    G|--4--|
D|--7--|    D|--5--|
A|--7--|    A|--5--|
E|--5--|    E|--3--|

Por Walter.
Suggest correction
Give kudos to tab author, rate the tab!
1 2 3 4 5
comments
print report bad tab
guest
You may want to rate the tab now too:
select rating
Wanna post a correction for this tab? Suggest correction