Oops, an error
Loading. Please wait.

Ganas De Vivir Tab

477 views 6 this week
no commentswrite comment
1 2 3 4 5
3 more votes to show rating
add to favorites
launch autoscroll
font size
0
reset
how to read this tab
guitar tuner
×
Best way to learn
"Ganas De Vivir"
Autoscroll
slow
fast
+/-
esc
set tempo
stop
INTRO:                       X2
|--3-3--5-5-7-7--5--3-3-5-5-7-5-3-:----------------------------------:
|---------------------------------:--5-5--6-6-8--8--6--5-5-6-6-8-6-5-:
|--4----5-5-7-7--5--4---5-5-7-5-4-:--5----7-7-9--9--7--5---7-7-9-7-5-:
|---------------------------------:----------------------------------:
|---------------------------------:-3------------------3-------------:
|-3-----------------3-------------:----------------------------------:

|--3-3--5-5-7-7--5--3-3-5-5-7-5-3-:
|---------------------------------:
|--4----5-5-7-7--5--4---5-5-7-5-4-:
|---------------------------------:
|---------------------------------:
|-3-----------------3-------------:
                                           G    C    G
|---5-5--7-7-8--8--7--5-5--7-7-8--7--5----2----0----2------------:
|-----------------------------------------2----1----2------------:
|---5----7-7-9--9--7--5----7-7-9--7--5----0----0----0------------:
|-0-------------------0-------------------0----2----0------------:
|-----------------------------------------2----3----2------------:
|-----------------------------------------3---------3------------:

G
  Caminando por la vida voy

Caminando por la vida voy
            C
Pensando en un amor
        G
En busca de ese amor
    D            C                  G
Con la ilusión    de ver mi vida florecer
G
  El sol brilla a mí alrededor

Ilumina en mí el corazón
            C
Que va latiendo en mí
           G
Con ansias de vivir
   D          C                    G
Gritando       el mundo es tuyo vívelo
C
  Sin embargo en el corazón

Muchas veces guardamos rencor
G
  La vida cambia una vez más
C
  Por que el destino es tan cruel

Y siempre tenemos que aprender
G                    Bm
  Tristeza, llanto y soledad
      D            C
Por que así, por que sufrir,
                       G
Si solo quiero hoy triunfar.......
INTRO
FIN
                     Â?La buena música no tiene por que ser complicadaÂ?
                               SALUDOS A TODOS     
Suggest correction
Give kudos to tab author, rate the tab!
1 2 3 4 5
comments
print report bad tab
guest
You may want to rate the tab now too:
select rating
Wanna post a correction for this tab? Suggest correction