Oops, an error
Loading. Please wait.

All Gone Dead Bass Tab

484 views 3 this week
no commentswrite comment
1 2 3 4 5
3 more votes to show rating
add to favorites
launch autoscroll
font size
0
reset
guitar tuner
Autoscroll
slow
fast
+/-
esc
set tempo
stop
Help us to improve Ultimate-Guitar.com Take our survey!
×
Author
Difficulty
novice
ALL GONE DEAD by Subhumans. Album : Day The Country Died (JU 1979)
All is quiet all is dead, the city has melted.
:
# verse # X6 0.28
G----------------------------|
D----------------------------|
A---7--6--5--4--3--2--1--0---|
E----------------------------|
:
# chorus #
G----------------------------------------------9--7--5--4--2---|
D-------------------------------------------9------------------|
A---7--7-7-8---7--7-7-----7--7-7-8---7--7-7--------------------|
E---------------------8----------------------------------------|
:
Then play verseX7, chorus, verseX7, chorus, verseX3
:
# end #
G-----------------------------------------------|
D-----------------------------------------------|
A---7--7-7-8---7--7-7-----7--7-7-8---7--7-7-----|
E---------------------7---------------------7---|
:
The sound has penetrated through our heads.
jackhynes |AT| gmail |DOT| com  14.06.04
http://www.geocities.com/jackstabs
http://www.jackstabs.googlepages.com
Suggest correction
Give kudos to tab author, rate the tab!
1 2 3 4 5
comments
print report bad tab
guest
You may want to rate the tab now too:
select rating
Wanna post a correction for this tab? Suggest correction