Oops, an error
Loading. Please wait.

Apathy Tab

1,246 views 1 this week
2 commentsread comments
1 2 3 4 5
3 more votes to show rating
add to favorites
launch autoscroll
font size
0
reset
how to read this tab
guitar tuner
Autoscroll
slow
fast
+/-
esc
set tempo
stop
Help us to improve Ultimate-Guitar.com Take our survey!
×
-------------------------------------------------------------------------------
                             Apathy - Subhumans
-------------------------------------------------------------------------------
Tabbed by: Me
Email:kariandlucas@juno.com

Tuning: Standard

e|---------------------------------------------------------------------------|
B|---------------------------------------------------------------------------|
G|---------------------------------------------------------------------------|
D|-12-12-12-12----12-12-12-12----12-12-12-12----12-12-12-12------------------|
A|-10-10-10-10----10-10-10-10----10-10-10-10----10-10-10-10------------------|
E|---------------------------------------------------------------------------|

e|---------------------------------------------------------------------------|
B|---------------------------------------------------------------------------|
G|---------------------------------------------------------------------------|
D|--------------------------------------2------------------------------------|
A|-2------------2-1-0-2-1---------------2------------------------------------|
E|-0--0-0-3-0-0---------------4X-then---0------------------------------------|

e|---------------------------------------------------------------------------|
B|---------------------------------0h3h5-----a bunch of times----------------|
G|---------------------------------------------------------------------------|
D|---------------------------------------------------------------------------|
A|--------------2-3-3-3-3-3-3-3-3--------------------------------------------|
E|-Pick slide---0-1-1-1-1-1-1-1-1--------------------------------------------|
 On the next part Bruce just does muted strumming, which he does alot. 
The bass carries the part but I ususally play this instead 
it sounds better without bass.
e|---------------------------------------------------------------------------|
B|---------------------------------------------------------------------------|
G|---------------------------------------------------------------------------|
D|---------------------11-11-11-11-------------------------------------------|
A|-3-3-3-2--------------9--9--9--9----However many times---------------------|
E|-1-1-1-0---8X--------------------------------------------------------------|
Then guitar only
e|---------------------------------------------------------------------------|
B|-0h3h5--a lot, then end on an extra 5---------------------------------------|
G|---------------------------------------------------------------------------|
D|---------------------------------------------------------------------------|
A|---------------------------------------------------------------------------|
E|---------------------------------------------------------------------------|

e|---------------------------------------------------------------------------|
B|---------------------------------------------------------------------------|
G|--------------------------------------------random bends around here-------|
D|-2*----3*----5*-----------------------7-7-7-7-7-7-7-7----------------------|
A|-2*----3*----5*-----7-7-7-7-7-7-7-7---5-5-5-5-5-5-5-5----------------------|
E|-0*-4X-1*-4X-3*-4X--5-5-5-5-5-5-5-5----------------------------------------|

e|---------------------------------------------------------------------------|
B|---------------------------------------------------------------------------|
G|---------------------------------------------------------------------------|
D|--9-9-9-9-------------10-10-10-10-10-10-10-10------------------------------|
A|--7-7-7-7---8-8-8-8---8--8--8--8--8--8--8--8-------------------------------|
E|------------6-6-6-6--------------------------------------------------------|

 Sorry for my laziness tabbing this. 
All of the tabs I have seen for this song are lacking.  
I think all of the parts are here with the exception of some minor variations. 
The last chorus the EFG are played higher. 
Just things like that. 
If you listen to the song you will hear them. 


| /  slide up
| \  slide down
| h  hammer-on
| p  pull-off
| ~  vibrato
| +  harmonic
| x  Mute note
===============================================================================
Suggest correction
Give kudos to tab author, rate the tab!
1 2 3 4 5
comments
print report bad tab
2 comments total.
0 reply
Captain_Obvious 224 Feb 07, 2010 01:54 AM

e|--0-----0-----0---|
B|---+3^0--+3^0-----|
G|------------------|
D|------------------|
A|------------------|
E|------------------|

That fill isn't a hammer on.
It's a tap riff... the only string you actually pick is the e. You tap and pull on the 3rd fret b string.

End on 0 on the e.

0 reply
Captain_Obvious 224 Feb 07, 2010 01:58 AM

^ = pull
+ = tapped note

Sorry... this is how I learned tab lingo.

guest
You may want to rate the tab now too:
select rating
Wanna post a correction for this tab? Suggest correction