Oops, an error
Loading. Please wait.

Black And White Tab

413 views 3 this week
no commentswrite comment
1 2 3 4 5
please rate
add to favorites
launch autoscroll
font size
0
reset
how to read this tab
guitar tuner
Tab Pro tools
  • play this tab
  • loop segment
  • change instrument
  • show fretboard
  • metronome
×
Best way to learn
"Black And White"
Autoscroll
slow
fast
+/-
esc
set tempo
stop
Contributor
Difficulty
novice
In the beginning the guitar isnt played. Its just muted strings.

intro: 0:05-0:16
pickslide
e-xxx-xxx-xxx|
b-xxx-xxx-xxx|
g-xxx-xxx-xxx|
d-xxx-xxx-xxx|
a-xxx-xxx-xxx|
e-xxx-xxx-xxx| x4

intro 2: 0:17-0:19
e---------------------|
b---------------------|
g---------------------|
d-9-6-7-10-9-6-7-10-9~|
a-9-6-7-10-9-6-7-10-9~|
e-7-4-5-8--7-4-5-8--7~|

verse 1: 0:21-0:42
e---------------|
b---------------|
g---------------|
d-99-66-77-1010-|
a-99-66-77-1010-|
e-77-44-55-8-8--| x8

chorus: 0:43-0:54
e----------------------------------------------------|
b----------------------------------------------------|
g-444-777-666-777-99-1111----------------------------|
d-444-777-666-777-99-1111-121212-111111-999-777-55-44|
a-222-555-444-555-77-9-9--121212-111111-999-777-55-44|
e-------------------------101010-9-9-9--777-555-33-22|
  ... ... ... ...

e--------------------------------------------------------------|
b--------------------------------------------------------------|
g-444-777-666-777-99-1111--------------------------------------|
d-444-777-666-777-99-1111-121212-111111-999-777-4-5-4-5-4-5-4-5|
a-222-555-444-555-77-9-9--121212-111111-999-777-4-5-4-5-4-5-4-5|
e-------------------------101010-9-9-9--777-555-2-3-2-3-2-3-2-3|
  ... ... ... ...

verse 2: 0:55-1:20
e---------------|
b---------------|
g---------------|
d-99-66-77-1010-|
a-99-66-77-1010-|
e-77-44-55-8-8--| x10

chorus 2: 1:21-1:32
e----------------------------------------------------|
b----------------------------------------------------|
g-444-777-666-777-99-1111----------------------------|
d-444-777-666-777-99-1111-121212-111111-999-777-55-44|
a-222-555-444-555-77-9-9--121212-111111-999-777-55-44|
e-------------------------101010-9-9-9--777-555-33-22|
  ... ... ... ...

e--------------------------------------------------------------|
b--------------------------------------------------------------|
g-444-777-666-777-99-1111--------------------------------------|
d-444-777-666-777-99-1111-121212-111111-999-777-4-5-4-5-4-5-4-5|
a-222-555-444-555-77-9-9--121212-111111-999-777-4-5-4-5-4-5-4-5|
e-------------------------101010-9-9-9--777-555-2-3-2-3-2-3-2-3|

bridge: 1:33-1:48
e--------------------------------------------|
b--------------------------------------------|
g--------------------------------------------|
d-9-99-6666-777-10-1010-9-999999-9-7-6-7-6-7-|
a-9-99-6666-777-10-1010-9-999999-9-7-6-7-6-7-|
e-7-77-4444-555-8--8-8--7-777777-7-5-4-5-4-5-| x3
                          ......

bridge 2: 1:49-1:56
e----------------------------------------------------------------|
b----------------------------------------------------------------|
g----------------------------------------------------------------|
d-9-99-6666-777-10-1010-9-999999-9-7-6-7-6-7-9-6-7-10-9-6-7-10-9~|
a-9-99-6666-777-10-1010-9-999999-9-7-6-7-6-7-9-6-7-10-9-6-7-10-9~|
e-7-77-4444-555-8--8-8--7-777777-7-5-4-5-4-5-7-4-5-8--7-4-5-8--7~|

verse 3: 1:58-2:18
e---------------|
b---------------|
g---------------|
d-99-66-77-1010-|
a-99-66-77-1010-|
e-77-44-55-8-8--| x8

end 1: 2:19-2:39
e-------------------------------------|
b-------------------------------------|
g-------------------------------------|
d-9-999999-77777777-66666666-5-555555-|
a-9-999999-77777777-66666666-5-555555-|
e-7-777777-55555555-44444444-3-333333-| x4

end 2: 2:40-2:59
e-------------------------------------|
b-------------------------------------|
g-------------------------------------|
d-9-999999-77777777-66666666-5-555555-|
a-9-999999-77777777-66666666-5-555555-|
e-7-777777-55555555-44444444-3-333333-| x4
  . ...... ........ ........ . ......

end 3: 3:00-3:09
e-----------|
b-----------|
g-----------|
d-9-7-6-5-9~|
a-9-7-6-5-9~|
e-7-5-4-3-7~|

and the rest of the song is effects

so there you have it. good ol' anarcho punk

email me for questions
and more subhumans tabs

nickster8993@optonline.net


comments
We did not receive enough feedback on this tab! Please rate:
print report bad tab
1 2 3 4 5
I want to post or [tab]
guest
You may want to rate the tab now too:
select rating
Please do not post tabs as comments. Select "correction" instead!