Oops, an error
Loading. Please wait.

Killing Bass Tab

198 views 1 this week
no commentswrite comment
1 2 3 4 5
please rate
add to favorites
launch autoscroll
font size
0
reset
guitar tuner
Tab Pro tools
  • play this tab
  • loop segment
  • change instrument
  • show fretboard
  • metronome
×
Best way to learn
"Killing"
Autoscroll
slow
fast
+/-
esc
set tempo
stop
Contributor
Difficulty
novice
KILLING by Subhumans. Album : Day The Country Died (JU 1979)
You - You're driving me insane.
:
# verse # X4  *=playX14
G-------------------------|
D----*---------*----------|
A----2---1-1---0---1-1----|
E-------------------------|
:
# chorus #  *=playX2 #=playX3
G-----------------X2----------------|---------X2--------|
D-----------*-------*---#---*---#---|---*---#---*---#---|
A---*---#---0---#---0---2---0---2---|---0---2---0---2---|
E---0---2-------2-------------------|-------------------|
:
# fill1 #  *=playX14 #=playX8
G---------------------------------|
D----*----------7--5--------------|
A----2---1---0---------7--5--3----|
E---------------------------------|
:
Then play verseX2, chorus
:
# fill2 #  *=playX16
G-------------14--12--------------|
D---*----------------14--12/10----|
A---2---/12-----------------------|
E---------------------------------|
:
Then play verseX2, chorus
:
# end #  *=playX2 #=playX3
G----------X3---------|-------------|
D----*---#---*---#----|-------------|
A----0---2---0---2----|---%%%--2----|
E---------------------|-------------|
:
But you know there's something wrong with my brain.
proudmisfit@hotmail.com
http://www.geocities.com/jackstabs
comments
We did not receive enough feedback on this tab! Please rate:
print report bad tab
1 2 3 4 5
I want to post or [tab]
guest
You may want to rate the tab now too:
select rating
Please do not post tabs as comments. Select "correction" instead!