Oops, an error
Loading. Please wait.

Mickey Mouse Is Dead Bass Tab

version 1
version 1

Whole song

Interactive

992 views 3 this week
no commentswrite comment
1 2 3 4 5
please rate
add to favorites
launch autoscroll
font size
0
reset
guitar tuner
Tab Pro tools
  • play this tab
  • loop segment
  • change instrument
  • show fretboard
  • metronome
Autoscroll
slow
fast
+/-
esc
set tempo
stop
Contributor
Difficulty
-----------------------------------------------------------------------------
                      MICKEY MOUSE IS DEAD - [SUB][HUM][ANS]
-----------------------------------------------------------------------------
Tuning: STANDARD

INTRO
G|---------------------------------|
D|---------------------------------|
A|---------------------------------|
E|--7-7-7-7-7-7-ETC.---7-7-7-7/8---|


VERSE/MAIN RIFF(this does not sound the same as the guitar part.
at the end of the song after the solo, you can hear this riff.
this riff is also the bass solo at the very end)
G|--------------------------|
D|--------------------------|
A|---------------4----------|
E|---7-7-7-7-7-5---5--------|

CHORUS
G|-------------------|
D|-------------------|
A|--5-5-5-5-6-6-6-6--|
E|-------------------|

BRIDGE "1-2-3-4--------------------| Look what you've done to Mickey Mouse"
G|---------------------------------|
D|---------------------------------|
A|---------------------------------|
E|--7-0--7-0--7-7-7-7-0--7-0-------|

SONG ORDER:
INTRO - HIT THE NOTE                             X30
INTRO - DO THE SLIDE                             X8
MAIN RIFF(GUITAR PLAYS THE RIFF 4X THEN THE BASS)X4
VERSE                                            X8
CHORUS                                           X4
RIFF                                             X4
VERSE                                            X8
CHORUS                                           X4
RIFF                                             X4
VERSE                                            X8
CHORUS                                           X4
RIFF                                             X4
VERSE                                            X8
CHORUS                                           X4
BRIDGE  (2x without vocals, 4x with vocals)      X6
CORUS                                            X4
MAIN RIFF (play under the guitar solo)           X4
BASS SOLO (which is the MAIN RIFF)               X2
comments
We did not receive enough feedback on this tab! Please rate:
print report bad tab
1 2 3 4 5
I want to post or [tab]
guest
You may want to rate the tab now too:
select rating
Please do not post tabs as comments. Select "correction" instead!