Oops, an error
Loading. Please wait.

No Tab

version 1
version 1

Whole song

Interactive

2,489 views 1 this week
no commentswrite comment
1 2 3 4 5
x 3
add to favorites
launch autoscroll
font size
0
reset
how to read this tab
guitar tuner
Autoscroll
slow
fast
+/-
esc
set tempo
stop
Help us to improve Ultimate-Guitar.com Take our survey!
×
Author
                        Guitar Tab

SUBHUMANS : NO     


Part 1
e|---------------------------------------------------------------|
B|---------------------------------------------------------------|
G|---7-7-7--9-9-9--10--10--9--9-9--7-7-7--5-5-5--4-4-4--5--5-5---|
D|---7-7-7--9-9-9--10--10--9--9-9--7-7-7--5-5-5--4-4-4--5--5-5---| 3x
A|---5-5-5--7-7-7---8---8--7--7-7--5-5-5--3-3-3--2-2-2--3--3-3---|
E|---------------------------------------------------------------|

Part 2
e|---------------------------------------------------------------|
B|---------------------------------------------------------------|
G|---7-7-7--9-9-9--10--10--9--9-9--7-7-7--5-5-5--4-4-4--5--5-5---|
D|---5-5-5--7-7-7---8---8--7--7-7--5-5-5--3-3-3--2-2-2--3--3-3---| 5x
A|---------------------------------------------------------------|
E|---------------------------------------------------------------|

Part 3
e|---------------------------------------------------------------|
B|---------------------------------------------------------------|
G|---7-7-7--9-9-9--10--10--9--9-9--7-7-7--5-5-5--4-4-4--5--5-5---|
D|---x-x-x--x-x-x---x---x--x--x-x--x-x-x--x-x-x--x-x-x--x--x-x---| 3x
A|---5-5-5--7-7-7---8---8--7--7-7--5-5-5--3-3-3--2-2-2--3--3-3---|
E|---------------------------------------------------------------|

Part 4
e|---------------------------------------------------------------|
B|---------------------------------------------------------------|
G|---7-7-7--9-9-9--10--10--9--9-9--7-7-7--5-5-5--4-4-4--5--5-5---|
D|---7-7-7--9-9-9--10--10--9--9-9--7-7-7--5-5-5--4-4-4--5--5-5---| 3x
A|---------------------------------------------------------------|
E|---------------------------------------------------------------|

Outro 
e|---------------------------------------------------------------|
B|---------------------------------------------------------------|
G|---7-7-7--9-9-9--10-10-10--9-9-9--7-7-7--5-5-5--4-4-4--5~------|
D|---7-7-7--9-9-9--10-10-10--9-9-9--7-7-7--5-5-5--4-4-4--5~------| 2x
A|---5-5-5--7-7-7---8--8--8--7-7-7--5-5-5--3-3-3--2-2-2--3~------|
E|---------------------------------------------------------------|
     ..PM...............................................

Lyric:

No I don't believe in Jesus Christ
My mother died of cancer when I was 5
No I don't believe in religion
I was forced to go to church, I wasn't told why

No I don't believe in the police force
Police brutality isn't a dream
No I don't believe in the system cos
Nothing it does makes sense to me

Don't worry you'll get over it
You'll grow up, you'll calm down
Another youth, another fashion
You'll get over it, you'll calm down
You don't really mean what you say
You've had too much to drink
[ Lyrics provided by www.mp3lyrics.org ]
Don't be so full of hated
It's not as bad as you think

No I don't believe in what you say
You're just part of what I despise
Yes you're part of the fucking system
I ain't blind, I can see your lies
Cos the system thrives on ignorance
What the public don't know, they can't reject
In the face of you all I stand defiant
The rest of the people, they wanna forget 



                          Tabbed By Yan



Suggest correction
Give kudos to tab author, rate the tab!
1 2 3 4 5
comments
print report bad tab
guest
You may want to rate the tab now too:
select rating
Wanna post a correction for this tab? Suggest correction