Oops, an error
Loading. Please wait.

Rain Tab

234 views 1 this week
no commentswrite comment
1 2 3 4 5
please rate
add to favorites
launch autoscroll
font size
0
reset
how to read this tab
guitar tuner
Autoscroll
slow
fast
+/-
esc
set tempo
stop
Help us to improve Ultimate-Guitar.com Take our survey!
×
Author
lavazza 7,305
Rain by Subhumans

lavazza@everymail.net

Intro:
e:------------------|------------------|
b:------------------|------------------|
g:11-11-11-13-13-13-|14-14-14-16-16-16-|
d:11-11-11-13-13-13-|14-14-14-16-16-16-|
a:09-09-09-11-11-11-|12-12-12-14-14-14-|
e:------------------|------------------|

e:------------------|------------------|
b:------------------|------------------|
g:18-18-18-18-18-18-|18-18-18-18-18-18-|
d:18-18-18-18-18-18-|18-18-18-18-18-18-|
a:16-16-16-16-16-16-|16-16-16-16-16-16-|
e:------------------|------------------|

Riff1:
e:------------------|
b:------------------|
g:11-11----------12-|
d:11-11-10-11-11-12-|
a:09-09-10-11-11-10-|
e:------08-09-09----|

Well it´s dark outside
And the raining (it´s faling)
And the atmosphere
Is like it always has been

F# (stop) Riff1
Thought of revolution
F# (stop) Riff1
How and why
Jussed pass on by 
Gloom and depression
Faked Deprivation
Well I got no money

Chorus:
e:--------------------|
b:--------------------|
g:/14--/14--/14--/14--|
d:/14--/14--/14--/14--|
a:/12--/12--/12--/12--|
e:--------------------|

Are you depressive? Or depressing?
Or obsessive? Or obsessed?
Someone or no one?
Are you alive or dead?

e:------------------|
b:------------------|
g:------------------|
d:------------------|Bass repeats (1 oktave deeper)
a:12-12-12-10-------|
e:------------13-11-|

Riff1

Do you take your ideas 
from other people?
Surrounded by boredom
you get boring

F# (stop) Riff1
And then you start to enjoy it
F# (stop) Riff1
take all the plugs out
and sit in darkness
It´s dark in your head
you´re not alive anymore
And it´s raining

Chorus

e:------------------|
b:------------------|
g:------------------|
d:------------------|Bass repeats (1 oktave deeper)
a:12-12-12-10-------|
e:------------13-11-|

e:------------------|------------------|
b:------------------|------------------|
g:11-11-11-13-13-13-|14-14-14-16-16-16-|
d:11-11-11-13-13-13-|14-14-14-16-16-16-|
a:09-09-09-11-11-11-|12-12-12-14-14-14-|
e:------------------|------------------|

e:------------------|------------------|
b:------------------|------------------|
g:18-18-18-18-18-18-|18-18-18----------|
d:18-18-18-18-18-18-|18-18-18----------|
a:16-16-16-16-16-16-|16-16-16->>slide<<|
e:------------------|------------------|

e:------------------|
b:------------------|
g:11-11-11-11-11-11-| 
d:11-11-11-11-11-11-|repeat 5x
a:09-09-09-09-09-09-|
e:------------------|

e:---------------|------------------|
b:---------------|------------------|
g:11-09----------|09-09-09-09-09-09-|
d:------11-09----|09-09-09-09-09-09-|
a:------------11-|07-07-07-07-07-07-|
e:---------------|------------------|

e:------------------|----|------------------|
b:------------------|----|------------------|
g:07-07-07-07-07-07-|----|09-09-09-09-09-09-|
d:07-07-07-07-07-07-|>3x<|09-09-09-09-09-09-|
a:05-05-05-05-05-05-|----|07-07-07-07-07-07-|
e:------------------|----|------------------|

e:------------------|------------------|------------------|
b:------------------|------------------|------------------|
g:11-11-11-11-11-11-|14-13-14-16-14-16-|18-18-18-18-18-18-|
d:11-11-11-11-11-11-|14-13-14-16-14-16-|18-18-18-18-18-18-|
a:09-09-09-09-09-09-|12-11-12-14-12-14-|16-16-16-16-16-16-|
e:------------------|------------------|------------------|

e:------------------|----|------------------|----|------------------|
b:------------------|----|------------------|----|------------------|
g:09-09-09-09-09-09-|----|07-07-07-07-07-07-|----|09-09-09-09-09-09-|
d:09-09-09-09-09-09-|>3x<|07-07-07-07-07-07-|>3x<|09-09-09-09-09-09-|
a:07-07-07-07-07-07-|----|05-05-05-05-05-05-|----|07-07-07-07-07-07-|
e:------------------|----|------------------|----|------------------|

End on Riff1










Suggest correction
What's this?
You can suggest a correction to this tab. Community and Mods will review your correction and vote to approve or reject it.
comments
We did not receive enough feedback on this tab! Please rate:
print report bad tab
1 2 3 4 5
guest
You may want to rate the tab now too:
select rating
Please do not post tabs as comments. Select "correction" instead!