Oops, an error
Loading. Please wait.

Too Fat Too Thin Tab

144 views 7 this week
no commentswrite comment
1 2 3 4 5
please rate
add to favorites
launch autoscroll
font size
0
reset
how to read this tab
guitar tuner
Tab Pro tools
  • play this tab
  • loop segment
  • change instrument
  • show fretboard
  • metronome
×
Best way to learn
"Too Fat Too Thin"
Autoscroll
slow
fast
+/-
esc
set tempo
stop
Contributor
Difficulty
intermediate
Intro
e|-------------------------------------------------|
B|-------------------------------------------------|
G|----7777------------7777------------7777---------|
D|888877776666666688887777666666668888777766666666-|
A|888855556666666688885555666666668888555566666666-|
E|6666----444444446666----444444446666----44444444-|

e|---------------------|
B|---------------------|
G|---------------------|
D|86868686868686868686-|
A|86868686868686868686-|
E|64646464646464646464-|

Bridge 1
e|x8-x6x4x4-x8-x6x4x4-x8-x6x4x4-x8-x6x44-|
B|x9-x8x6x6-x9-x8x6x6-x9-x8x6x6-x9-x8x66-|
G|x10x8x6x6-x10x8x6x6-x10x8x6x6-x10x8x66-|
D|x10x8x6x6-x10x8x6x6-x10x8x6x6-x10x8x66-|
A|-8--6-4-4--8--6-4-4--8--6-4-4--8--6-44-|
E|---------------------------------------|

Verse 1
e|x8-x6x4x4-x8-x6x44x8-x6x4x4-x8-x6x44x8-x6x4x4-3-2|
B|x9-x8x6x6-x9-x8x66x9-x8x6x6-x9-x8x66x9-x8x6x6-5-4|
G|x10x8x6x6-x10x8x66x10x8x6x6-x10x8x66x10x8x6x6-5-4|
D|x10x8x6x6-x10x8x66x10x8x6x6-x10x8x66x10x8x6x6-5-4|
A|-8--6-4-4--8--6-44-8--6-4-4--8--6-44-8--6-4-4-3-2|
E|-------------------------------------------------|

Bridge 2
e|-------------------------------|
B|-------------------------------|
G|-----777-555----------777-5535-|
D|8888-777-555-333-8888-777-5535-|
A|8888-555-333-333-8888-555-3313-|
E|6666---------111-6666----------|

Chorus
e|-------------------------------------------------|
B|-------------------------------------------------|
G|----7777------------7777------------7777---------|
D|888877776666666688887777666666668888777766666666-|
A|888855556666666688885555666666668888555566666666-|
E|6666----444444446666----444444446666----44444444-|

e|---------------------------------------------------------------------------|
B|---------------------------------------------------------------------------|
G|------------------------------------7777-----------------------------------|
D|10101010101010101010101010101010888877776666888886868686868686868686-------|
A|10101010101010101010101010101010888855556666888886868686868686868686-------|
E|8-8-8-8-8-8-8-8-8-8-8-8-8-8-8-8-6666----4444666664646464646464646464-------|

Solo
e|10101010--------8888----------10101010--------8888------------------------|
B|--------11111111----9\1-2-4-6---------11111111----999913-13-13-13---------|
G|----------------------3b4b6b8b------------------------15b15b15b15b15p13---|
D|-----------------------------------------------------------------------15-|
A|--------------------------------------------------------------------------|
E|--------------------------------------------------------------------------|

Verse 2
e|------------------------------------------------------------------|
B|------------------------------------------------------------------|
G|88888888----------------88888888----------------------------------|
D|888888881010101010101010888888881010101010101010------------------|
A|666666661010101010101010666666661010101010101010------------------|
E|--------8-8-8-8-8-8-8-8---------8-8-8-8-8-8-8-8-------------------|

e|---------------------------------|
B|---------------------------------|
G|88888888888888881010101010101010-|
D|88888888888888881010101010101010-|
A|66666666666666668-8-8-8-8-8-8-8--|
E|---------------------------------|

Order:
Intro
Bridge 1
Verse 1  Played 2 times
Bridge 2
Chorus
Bridge 1
Verse 1
Bridge 2
Chorus
Solo played 2 times
Verse 2
Chorus
comments
We did not receive enough feedback on this tab! Please rate:
print report bad tab
1 2 3 4 5
I want to post or [tab]
guest
You may want to rate the tab now too:
select rating
Please do not post tabs as comments. Select "correction" instead!