Oops, an error
Loading. Please wait.

Waste Of Breath Tab

537 views 3 this week
no commentswrite comment
1 2 3 4 5
please rate
add to favorites
launch autoscroll
font size
0
reset
how to read this tab
guitar tuner
Autoscroll
slow
fast
+/-
esc
set tempo
stop
Help us to improve Ultimate-Guitar.com Take our survey!
×
Author
Subhumans - Waste of Breath

for comments: lavazza@everymail.net or in my UG-profile (lavazza)

pb: pre-bend 
PM: Palm-Mute
h: hammer-on
p: pull off
b: bend

Intro:
e:12--12--12-----|
b:15b-15b-15b-pb-|
g:---------------|
d:---------------|
a:---------------|
e:---------------|

Verse:
e:----------------|----------------|
b:----------------|----------------|
g:x-9-x-9-x-9-x-9-|5-5-5-5-5-5-5-5-| play the riff 6x (2x without voice)
d:x-9-x-9-x-9-x-9-|5-5-5-5-5-5-5-5-|
a:7---------------|3-3-3-3-3-3-3-3-|
e:----------------|----------------|

You paint your leather jacket but it comes off in the rain
The more you cut your hair the more it grows again
The badges (that) you pin on yourself fall off or start to rust
And the more they take the piss the less people you can trust

Pre-Chorus:
  PM______________
e:----------------|----------------|
b.----------------|----------------|
g:----------------|----------------|
d:2-2-2-2-4-4-4-4-|5-5-5-5-7-7-7-7-|
a:2-2-2-2-4-4-4-4-|5-5-5-5-7-7-7-7-|
e:0-0-0-0-2-2-2-2-|3-3-3-3-5-5-5-5-|

Chorus:
e:----------------|
b:----------------|
g:----------------|
d:7-7-7-7-9-9-6-6-|
a:7-7-7-7-9-9-6-6-|
e:5-5-5-5-7-7-4-4-|

It´s the story of your live
And the end of it´s your death
And every word that´s inbetween
Is just a waste of breathe

Verse
You don´t know you might have been or who you now should be
Or what you ought to write on walls or why you wanna be free
And when you start to panic cos the inspiration´s there
But you´re not sure how to use it and anyway no one seems to care

Pre-Chorus
Chorus

Solo
e:------------------|----------------|----------------|----------------|
b:------------------|--------6-9-6---|----------------|--------6-9-6---|
g:9-9-9-9-7h9p7-10-9|----7-9-------9-|9-9-9-9-7-10-9-7|----7-9-------9-|
d:------------------|7-9-------------|----------------|7-9-------------|
a:------------------|----------------|----------------|----------------|
e:------------------|----------------|----------------|----------------|

e:9-7-6--6h7p6-6h7p7|7-7-9-10-12-13-12-10|12-12-10h12p10-12-13-12-10|
b:------------------|--------------------|--------------------------|
g:------------------|--------------------|--------------------------|
d:------------------|--------------------|--------------------------|
a:------------------|--------------------|--------------------------|
e:------------------|--------------------|--------------------------|

e:10-10-10-10-10-10sd|
b:-------------------|
g:-------------------|
d:-------------------|
a:-------------------|
e:-------------------|

  PM______________
e:----------------|----------------|
b.----------------|----------------|
g:----------------|----------------|
d:2-2-2-2-4-4-4-4-|5-5-5-5-7---7-7-|
a:2-2-2-2-4-4-4-4-|5-5-5-5-7---7-7-|
e:0-0-0-0-2-2-2-2-|3-3-3-3-5---5-5-|


Verse
You´re the classical all-round failure who never seems to win
You´d like to write a book but you´re not sure how to begin
It´s the story of your life and the endof it´s your death
And every word that´s inbetweenis just a waste of breathe

Pre-Chorus
Chorus

so I made an update for the chorus.....It´s at least what he played live I think 
(I watched his fingers)
Suggest correction
Give kudos to tab author, rate the tab!
1 2 3 4 5
comments
print report bad tab
guest
You may want to rate the tab now too:
select rating
Please do not post tabs as comments. Select "correction" instead!