Oops, an error
Loading. Please wait.

Work Experience Tab

232 views 1 this week
no commentswrite comment
1 2 3 4 5
3 more votes to show rating
add to favorites
launch autoscroll
font size
0
reset
how to read this tab
guitar tuner
Autoscroll
slow
fast
+/-
esc
set tempo
stop
Help us to improve Ultimate-Guitar.com Take our survey!
×
Author
-------------------------------------------------------------------------------
                             Work Experience - Subhumans
-------------------------------------------------------------------------------
Tabbed by:BIG J
Email:RescuMeFrom3@aol.com

Tuning:standard

Play 2x
e|--------------------------|
B|--------------------------|
G|--------------------------|
D|-----9-7----------7-5-----|
A|---------7h8----------5h6-|
E|-7-7----------5-5---------|

e|--------------------|
B|--------------------|
G|--------------9b10--|
D|-/9-9-9-9-9-7-------|
A|--------------------|
E|--------------------|

Then pickslide into this(play first part 8x, then play second part)
  . .    .  .      . .    . .
e|-------------------------------|-----|
B|-------------------------------|-----|
G|-------------------------------|-----|
D|--------10-10-10---------8-8-8-|-----|
A|-9-9-9--8--8--8---7-7-7--6-6-6-|-9---|
E|-7-7-7------------5-5-5--------|-7---|

e|------------------------------------------------------------------------|
B|------------------------------------------------------------------------|
G|--------2-2-2-2-4-4-4-4-5-5-5-5-7-7-7-7-9-9-9-9-11-11-11-11-12-12-12-12-|
D|--------0-0-0-0-2-2-2-2-3-3-3-3-5-5-5-5-7-7-7-7-9--9--9--9--10-10-10-10-|
A|-2-2-2-2----------------------------------------------------------------|
E|-0-0-0-0----------------------------------------------------------------|

Play 4x
e|---------------------------------------|
B|---------------------------------------|
G|---------------------------------------|
D|-11--11-11-11-11-11-11--9--9-9-9-9-9-9-|
A|-9---9--9--9--9--9--9---7--7-7-7-7-7-7-|
E|---------------------------------------|

Play 2x
e|--------------------------------|
B|--------------------------------|
G|--------------------------------|
D|--------------------------------|
A|-9--9-9-9-9-9-9--7--7-7-7-7-7-7-|
E|-7--7-7-7-7-7-7--5--5-5-5-5-5-5-|

e|-------------------------------|
B|-------------------------------|
G|-------------------------------|
D|-x-x-x-x-x-x-x-x-x-x-x-x-x-x-x-|
A|-x-x-x-x-x-x-x-x-x-x-x-x-x-x-x-|
E|-x-x-x-x-x-x-x-x-x-x-x-x-x-x-x-|

Play first part 6x, then play second part
  . .    .  .      . .    . .
e|-------------------------------|-----|
B|-------------------------------|-----|
G|-------------------------------|-----|
D|--------10-10-10---------8-8-8-|-----|
A|-9-9-9--8--8--8---7-7-7--6-6-6-|-9---|
E|-7-7-7------------5-5-5--------|-7---|

e|------------------------------------------------------------------------|
B|------------------------------------------------------------------------|
G|--------2-2-2-2-4-4-4-4-5-5-5-5-7-7-7-7-9-9-9-9-11-11-11-11-12-12-12-12-|
D|--------0-0-0-0-2-2-2-2-3-3-3-3-5-5-5-5-7-7-7-7-9--9--9--9--10-10-10-10-|
A|-2-2-2-2----------------------------------------------------------------|
E|-0-0-0-0----------------------------------------------------------------|

Play 4x
e|---------------------------------------|
B|---------------------------------------|
G|---------------------------------------|
D|-11--11-11-11-11-11-11--9--9-9-9-9-9-9-|
A|-9---9--9--9--9--9--9---7--7-7-7-7-7-7-|
E|---------------------------------------|

Play 2x
e|--------------------------------|
B|--------------------------------|
G|--------------------------------|
D|--------------------------------|
A|-9--9-9-9-9-9-9--7--7-7-7-7-7-7-|
E|-7--7-7-7-7-7-7--5--5-5-5-5-5-5-|

Solo
Play 2x
e|--------------------------|
B|--------------------------|
G|--------------------------|
D|-----9-7----------7-5-----|
A|---------7h8----------5h6-|
E|-7-7----------5-5---------|

e|---------------------------10----10----10----10----10----|
B|---------------------10-12----12----12----12----12----12-|
G|-------------9-10-11-------------------------------------|
D|-------7-8-9---------------------------------------------|
A|-7-8-9---------------------------------------------------|
E|---------------------------------------------------------|

Play 4x
e|---------------------------------------------|
B|-8b10-10-10-10-10r8---10b12-12-12-12-12r10---|
G|--------------------8----------------------8-|
D|---------------------------------------------|
A|---------------------------------------------|
E|---------------------------------------------|

Only bend a half step, then hold the note for a couple seconds
e|-----------------------|
B|-----------------------|
G|-8b9r8~~~~~~~~~~~~~~~~-|
D|-----------------------|
A|-----------------------|
E|-----------------------|

e|-------------------------------|
B|-------------------------------|
G|-------------------------------|
D|-x-x-x-x-x-x-x-x-x-x-x-x-x-x-x-|
A|-x-x-x-x-x-x-x-x-x-x-x-x-x-x-x-|
E|-x-x-x-x-x-x-x-x-x-x-x-x-x-x-x-|

Play first part 6x, then play second part
  . .    .  .      . .    . .
e|-------------------------------|-----|
B|-------------------------------|-----|
G|-------------------------------|-----|
D|--------10-10-10---------8-8-8-|-----|
A|-9-9-9--8--8--8---7-7-7--6-6-6-|-9---|
E|-7-7-7------------5-5-5--------|-7---|

Play 4x
e|---------------------------------------|
B|---------------------------------------|
G|---------------------------------------|
D|-11--11-11-11-11-11-11--9--9-9-9-9-9-9-|
A|-9---9--9--9--9--9--9---7--7-7-7-7-7-7-|
E|---------------------------------------|

Play 2x
e|--------------------------|
B|--------------------------|
G|--------------------------|
D|-----9-7----------7-5-----|
A|---------7h8----------5h6-|
E|-7-7----------5-5---------|

e|-----------------------|
B|-----------------------|
G|--------------9b10-----|
D|-/9-9-9-9-9-7----------|
A|-----------------------|
E|-----------------------|

| r  release
| b  bend
| .  palm mute
| /  slide up
| \  slide down
| h  hammer-on
| p  pull-off
| ~  vibrato
| +  harmonic
| x  Mute note
===============================================================================Check out my other tabs too
Suggest correction
Give kudos to tab author, rate the tab!
1 2 3 4 5
comments
print report bad tab
guest
You may want to rate the tab now too:
select rating
Wanna post a correction for this tab? Suggest correction