Oops, an error
Loading. Please wait.

Erasus Bass Tab

885 views 1 this week
no commentswrite comment
1 2 3 4 5
please rate
add to favorites
launch autoscroll
font size
0
reset
guitar tuner
Autoscroll
slow
fast
+/-
esc
set tempo
stop
Help us to improve Ultimate-Guitar.com Take our survey!
×
Author
Difficulty
Tuning
novice
D A D G B E
-------------------------------------------------------------------------------
			     Erasus - Subkulture
-------------------------------------------------------------------------------

Tabbed By : Necrotic
e-mail: joelschwallier@gmail.com

Can find Subkulture at
http://www.myspace.com/subkulture
http://www.fixtonline.com/freedownloads.html  (you can listen/download the song Erasus 
for free and some of celldwellers tracks also)

Tuning: Drop D DADG

Pre-Chorus 0:11
G|-----------------|
D|-----------------|
A|-----------------|
D|3---7---0--------|x2

Verse/Chorus 0:22 (pause after 4th)
G|-----------------------------------|
D|-----------------------------------|
A|-----------------------------------|
D|333333333333-7777-0000000000000000-|x8
Pause at 1:04

Pre-Chorus 1:26
G|-----------------|
D|-----------------|
A|-----------------|
D|3---7---0--------|

Chorus 1:36
G|-----------------------------------|
D|-----------------------------------|
A|-----------------------------------|
D|333333333333-7777-0000000000000000-|x4

Bridge 2:22
G|-----------------|
D|-----------------|
A|-----------------|
D|3---7---0--------|

Pre-Chorus 2:27
G|-----------------|
D|--------0--------|
A|-----------------|
D|3---7---0--------|x8

Chorus 3:18
G|-----------------------------------|
D|-----------------------------------|
A|-----------------------------------|
D|333333333333-7777-0000000000000000-|x4
Pause

Chorus 3:39
G|-----------------------------------|
D|-----------------------------------|
A|-----------------------------------|
D|333333333333-7777-0000000000000000-|x4

Outro
G|-----------------|
D|-----------------|
A|-----------------|
D|-5---0---2-------|

| /  slide up
| \  slide down
| h  hammer-on
| p  pull-off
| ~  vibrato
| +  harmonic
| x  Mute note
===============================================================================
Suggest correction
Give kudos to tab author, rate the tab!
1 2 3 4 5
comments
print report bad tab
guest
You may want to rate the tab now too:
select rating
Please do not post tabs as comments. Select "correction" instead!