Oops, an error
Loading. Please wait.

Cuba Chords

7 views 1 this week
no commentswrite comment
1 2 3 4 5
3 more votes to show rating
add to favorites
launch autoscroll
font size
0
reset
transpose
0
reset
simplify chords
display chords
guitar tuner
Autoscroll
slow
fast
+/-
esc
set tempo
stop
Help us to improve Ultimate-Guitar.com Take our survey!
×
INTRO: Hace unos minutos, utedes decian, a los yanquis, dales duro.
No es que nosotros queramos darles duro a ls yanquis por gusto,
es que el imperialismo yanqui se merece que le den duro. (Fidel)


      Ahora entra la guitarra con este punteillo (Hala, a hacer lineas)


                     (bis X2)              G5                      D5
e|--------------------------|---------7-------|--10-9--7-----------|
B|--7-8-10--10--7-8--8--7---|--7--10----8-----|----------10--7-----|
G|------------------------9-|--------------9--|-----------------7--|
D|--------------------------|-----------------|--------------------|
A|--------------------------|-----------------|--------------------|
E|--------------------------|-----------------|--------------------|
    A5     G5    D5                    G5                      D5
e|--------------------------|---------7-------|--10-9--7-----------|
B|--10---8-7----------------|--7--10----8-----|----------10--7-----|
G|-------------9-7----------|--------------9--|-----------------7--|
D|--------------------------|-----------------|--------------------|
A|--------------------------|-----------------|--------------------|
E|--------------------------|-----------------|--------------------|
    A5     G5    D5 D5 C5 D5
e|--------------------------|
B|--10---8-7----------------|
G|-------------9-7----------|
D|--------------------------|
A|--------------------------|
E|--------------------------|


      D5      A5              D5
Ay en cuba ya no se habla ingles
      D5      A5              D5
Ay en cuba ya no se habla ingles
      G5
Ay en cuba hermano
          D5
Quien no habla hispano
       A5           G5             D5
O es un yanqui o nos viene a joder
      G5
Ay en cuba hermano
          D5
Quien no habla hispano
       A5           G5             D5 D5 C5D5 D5 C5D5 D5 C5D5
O es un yanqui o nos viene a joder


Bueno espero que les guste, ya ire pasando mas canciones de este grupo.
Para mas información o para pedir canciones
enviadme un mail a matakristos@
Esta cancion se la dedico a todo mi barrio de la L y a Mika.
Suggest correction
Give kudos to tab author, rate the tab!
1 2 3 4 5
comments
print report bad tab
guest
You may want to rate the tab now too:
select rating
Wanna post a correction for this tab? Suggest correction