Oops, an error
Loading. Please wait.

Un Billete Para Huir Tab

30 views 1 this week
no commentswrite comment
1 2 3 4 5
3 more votes to show rating
add to favorites
launch autoscroll
font size
0
reset
how to read this tab
guitar tuner
×
Best way to learn
"Un Billete Para Huir"
Autoscroll
slow
fast
+/-
esc
set tempo
stop
Bueno aqui os dejo mi vision de este pedazo de tema de
Sublevados del disco "Alborada". Todo son acordes con
cejilla.

Punteo intro:

e--1-------3--0-------------0--1--1~3--1-0----------
B----1---1---------1-3-1-------------------3-1-3----
G------2---------2----------------------------------
D---------------------------------------------------

e-------------------0--0-1-0-3-5--8-7-7-8-10-8-8-7--
B------1-----3--------------------------------------
G--2-2---2-2----2-2---------------------------------
D---------------------------------------------------

e-5-3-1-0-1-0-3-3-5-3--0--1--1~3--1-0---------------
B------------------------------------3-1-3----------
G---------------------------------------------------
D---------------------------------------------------

e-------------------0-------------------------------
B------1-----3---------1-0--------------------------
G--2-2---2-2----2-2---------------------------------
D---------------------------3-----------------------

Aqui hace FA en P.M. y luego repite el solo con más
distorsion.


LA
Vi en un callejon como la justicia
DO          SOL         FA
era sodomizada por un banquero
LA          DO
mientras ????? en ????? un general
FA         DO         SOL
que se masturbaba en los laderos

DO        SOl      FA    SOL
vi tanta mierda y decidí
DO        SOL       FA
marcharme muy lejos de alli

SOL        FA        DO      SOL     FA-DO-SI-LA
cogí un billete para huir del mundo
LA        FA         SOL    DO    SI   LA  SOL FA
y vomite mi rabia viendo su paisaje desolador

SOL         FA        DO      SOL     FA-DO-SI-LA
hice transbordo en la ¿sorera? y me hallé
LA        FA         SOL    DO    SI   LA  SOL FA
en la patria de la mentira, la humanidad esta podrida


ahora viene ese pedaaaazo de solo que no he podido sacar
(espero que alguien lo haga). por debajo suenan estos acordes
(mas o menos):


(  LA SOL~LA LA SOL~LA LA SOL DO-SI-LA#  )x2

(  FA FA~MI FA  ) x4

LA SOL~LA LA SOL~LA LA SOL DO-SI-LA# RE


y volvemos al estribillo que es igual que los anteriores.
ale, a disfrutarla!!

Santi.

faszismo_akatu@
Suggest correction
Give kudos to tab author, rate the tab!
1 2 3 4 5
comments
print report bad tab
guest
You may want to rate the tab now too:
select rating
Wanna post a correction for this tab? Suggest correction