Oops, an error
Loading. Please wait.

5446 Thats My Number Ball And Chain bass

by Sublime
235 views 15 this week
no commentswrite comment
1 2 3 4 5
1 last vote to show rating
add to favorites
×
Save as Personal and add changes to this tab that will be seen only by you. Learn more ›
×
You can save this tab as Personal to edit and correct it or add notes. All changes will be seen only by you. Learn more »
launch autoscroll
font size
0
reset
guitar tuner
edit
Autoscroll
slow
fast
+/-
esc
set tempo
stop
Author
Difficulty
About this tab version
Full bass version, with most of the riffs. Was this info helpful? Yes No
Sublime - Ball and Chain
Bass Tuning - Drop D
tabbed by jjhand

[Intro]

G|---------------------------------|-------------------------------|
D|-----------------------------4h7-|-------------------------------|
A|-0-0---0-0-0-4-5-7-7-----7-7-----|-0-0---0-0-0-3-4-5-3~----------|
D|---------------------------------|-------------------------------|

G|---------------------------------|-------------------------------|
D|-7-----7-7-7-4-----------------4-|-------------------------------|
A|---------------7-5-5---5-5-5-7---|-0-0---0-0-0-3-4-5-3~----------|
D|---------------------------------|-------------------------------|


[Verse]

G|---------------------------------|
D|-7---7---7-4-----------------4---|   play 10x
A|-------------7---5---5---5-7-----|
D|---------------------------------|
 
   variation
G|---------------------------------|---------------------------------|
D|-----------------------------4---|-7---7---7-4-----------------4---|
A|-0---0---0-3-4---5---5---5-7-----|-------------7---5---5---5-7-----|
E|---------------------------------|---------------------------------|
  "they were wrong,      they were wrong"



[Chorus]
                           pause at end of each measure
G|---------------------------------|--------------|--------------|--------------|
D|-7---7---7-4---------------------|--------------|--------------|--------------|
A|-------------7-------------------|--------------|--------------|--------------|
D|---------------0-----------------|-0--0---------|-0--0--0------|-0--0--0--2---|
       "One Time..."      "Two times"       
 


[Verse Riff 2]
G|---------------------------------|
D|---------7-4-----------------4---|
A|-0---0-------7---5---5---5-7-----|
D|---------------------------------|

G|---------------------------------|
D|-7---7---7-4-----------------4---|   play 6x
A|-------------7---5---5---5-7-----|
D|---------------------------------|

G|---------------------------------|
D|-7---7---7-4---------------------|
A|-------------7---5---5---5-4-2---|
D|---------------------------------|



[Verse Riff 3]

G|-------------------------------|
D|---------------------------4---|
A|-0---0---0-0-4-5---5---5-------|
D|-------------------------------|

G|-------------------------------|
D|-7---7---7-4----------------4--|   play 2x
A|-------------7---5---5---5-----|
D|-------------------------------|

play variations of this verse like before until 1:53


[Chorus]

G|---------------------------------|--------------|--------------|--------------|
D|-7---7---7-4---------------------|--------------|--------------|--------------|
A|-------------7-5-----------------|-5--5---------|-5--5--5------|-5--5--5--5---|
D|---------------------------------|--------------|--------------|--------------|
"Give it to me one time..."      "Two times"       



[New Riff]

G|----------------------|---------------------------|
D|-----------5----------|-7p5----------5------------|
A|-7--7-----------------|-----7------------------5--|
D|----------------------|----------5h7-------5h7----|

G|-------------5-------------------|-------------5----------------|-------------------------|
D|---------5h7---------------------|---------5h7------------------|-------4---------4-------|
A|-7-7---7---------7-7---7---------|---7-7-7---------2---2-2---0--|-2---2-----0-2-------2---|
D|-------------------------5-7-5---|------------------------------|-------------------2-----|

G|---------------------------|
D|---------1---1-2-----------|
A|---2-2-2---2------/14\-----|
D|---------------------------|



[New Riff 2]
G|-------------5-------------------|-------------5----------------|-------------------------|
D|---------5h7---------------------|---------5h7------------------|-------4---------4-------|
A|-7-7---7---------7-7---7---------|---7-7-7---------2---2-2---0--|-2---2-----0-2-------2---|
D|-------------------------5-7-5---|------------------------------|-------------------2-----|

G|-----------------------------|
D|-----------------------------|
A|-0---0---------0---0---------|
D|-------2---5---------2---5---|

G|---------------------------------|
D|-2---2---2---2-------------------|
A|-------2-------2-0---0-0-0---2---|  play 3x
D|---------------------------------|

G|-----------------------------|
D|-----------------------------|
A|-2---2-2-2---2-2-3--3--2-----|
D|--------------------------2--|

G|-----------------------------|-----------------------------|
D|-2----2-2--2-----------------|-----------------------------|
A|-----------------------------|-2----2-2--2---2----2-2--0---|
D|---------------5----5-5--5---|-----------------------------|

G|-----------------------------|-------------------------------------|
D|-2---2---2--2--5---5---5--5--|-9----9---9----9---9----9---9----9---|
A|-------2-------------5-------|--------9--------9--------9--------9-|
D|-----------------------------|-------------------------------------|



Play New Riff Again Similarly (2:50)
G|----------------------|---------------------------|
D|-----------5----------|-7p5----------5------------|
A|-7--7-----------------|-----7------------------5--|
D|----------------------|----------5h7-------5h7----|

G|----------------------|---------------------------|
D|-----------5----------|-7p5----------5------------|
A|-7--7-----------------|-----7---------------------|
D|----------------------|----------5h7--------------|

G|------------5-------------------|-------------5----------------|-------------------------|
D|--------5h7---------------------|---------5h7------------------|-----------------4-------|
A|-7----7---------7-7---7---------|---7-7-7---------2---2-2---0--|-2---2-2---0-2---------0-|
D|------------------------5-7-5---|-------------------------2----|-------------------2-----|

G|---------------------4---------|
D|---------1---1-2-2-2---2-------|
A|-2-2-2-2---2-------------/14\--|
D|-------------------------------|


[New Riff 2]
G|-------------5-------------------|-------------5----------------|-------------------------|
D|---------5h7---------------------|---------5h7------------------|-------4---------4-------|
A|-7-7---7---------7-7---7---------|---7-7-7---------2---2-2---0--|-2---2-----0-2-------2---|
D|-------------------------5-7-5---|------------------------------|-------------------2-----|

G|-----------------------------|
D|-----------------------------|
A|-0---0---------0---0---------|
D|-------2---5---------2---5---|

G|---------------------------------|
D|-2---2---2---2-------------------|
A|-------2-------2-0---0-0-0---2---|  play 3x
D|---------------------------------|

G|-----------------------------|
D|-----------------------------|
A|-2---2-2-2---2-2-3--3--2-----|
D|--------------------------2--|

G|-----------------------------|-----------------------------|
D|-2----2-2--2-----------------|-----------------------------|
A|-----------------------------|-2----2-2--2---2----2-2--0---|
D|---------------5----5-5--5---|-----------------------------|

G|-----------------------------|-------------------------------------|
D|-2---2---2--2--5---5---5--5--|-9----9---9----9---9----9---9----9---|
A|-------2-------------5-------|--------9--------9--------9--------9-|
D|-----------------------------|-------------------------------------|



Play New Riff Again Similarly (2:50)
G|----------------------|---------------------------|
D|-----------5----------|-7p5----------5------------|
A|-7--7-----------------|-----7------------------5--|
D|----------------------|----------5h7-------5h7----|

G|----------------------|---------------------------|----------------|----------|
D|-----------5----------|-7p5----------5------------|----------------|----------|
A|-7--7-----------------|-----7---------------------|-7--------------|----------|
D|----------------------|----------5h7--------------|--------5-------|-9--------|



[Sax Solo]
G|-------------5-------------------|-------------5----------------|-------------------------|
D|---------5h7---------------------|---------5h7------------------|-------4---------4-------|
A|-7-7---7---------7-7---7---------|---7-7-7---------2---2-2---0--|-2---2-----0-2-------2---|
D|-------------------------5h7-5---|------------------------------|-------------------2-----|

G|---------------------------|
D|---------1---1-2-2-2-------|
A|---2-2-2---2---------/14\--|
D|---------------------------|

G|-------------5-------------------|-------------5----------------|-------------------------|
D|---------5h7---------------------|---------5h7------------------|-------4---------4-------|
A|-7-7---7---------7-7---7---------|---7-7-7---------2---2-2---0--|-2---2-----0-2-------2---|
D|-------------------------5-7-5---|------------------------------|-------------------2-----|

G|--------------------------------|
D|-1---1---1---1---1---1---1-1-1--|
A|-------2-------2-------2--------|
D|--------------------------------|



G|---------------------------------|
D|-2---2---2---2-------------------|
A|-------2-------2-0---0-0-0---2---|  play 3x
D|---------------------------------|

G|-----------------------------|
D|-----------------------------|
A|-2---2-2-2---2-2-3--3--2-----|
D|--------------------------2--|

   speed up
G|-----------------------------|-------------------7--------|
D|-2----2-2--2-----------------|-------------7/8/9-----7----|
A|-----------------------------|-----7/8/9-9----------------|
D|---------------5----5-5--5---|-9-9------------------------|

G|------------------------------|---------------------8-8-9-9-11-12-|
D|---------------5----3-4-5--5--|-9-9---------7-7-9-9---------------|
A|-7---5-6-7--7-----------------|-----7-7-9-9-----------------------|
D|------------------------------|-----------------------------------|

G|-------------5-------------------|-------------5----------------|--------------------------------|
D|---------5h7---------------------|---------5h7------------------|----------------------4---------|
A|-7-7---7---------7-7---7---------|---7-7-7---------2-2---2-2--0-|-2-2--2-2-2-0---2-2-----2-2-0---|
D|-------------------------5-7-5---|------------------------------|--------------------------------|

G|-------------------------|
D|-2--2--2--2--2--4/5\4----|
A|-------------------------|
D|-------------------------|

G|-------------5-------------------|-------------5----------------|--------------------------------|
D|---------5h7---------------------|---------5h7------------------|-------------------------9-7-9--|
A|-7-7---7---------7-7---7---------|---7-7-7---------2-2---2-2--0-|-2-2--2-2-2-0---2---2-2---------|
D|-------------------------5-7-5---|------------------------------|--------------------------------|

G|-----------------------------|
D|-7--7-6-7--7-6-7--7-6-7--7-7-|
A|-----------------------------|
D|-----------------------------|


[Distorted Guitar Part]
G|-------------------|-------------------|
D|-------------------|-------------------|  3x
A|-7-7-5-7---5-7-5---|-------------------|
D|-------------------|-7-7-5-7---5-7-5---|

G|-------------------|-------------------|
D|-----------9-------|-------------------|
A|---------9---------|-------------------|
D|-9-9-9-9-----9-9---|10-10-10---9-9-9---|



[Ending]
G|-----------------------------|-----------------------------|
D|-2----2-2--2-----------------|-----9---9-------10--10--9---|
A|-----------------------------|---9-------9-----------------|
D|---------------5----5-5--5---|-9-----------9---------------|

G|-----------------------------|---------------------------------|
D|-2---2---2--2--5---5---5--5--|-9-9-9---9-9-9---9--11--12--13---|
A|-------2-------------5-------|-------9-------9-----------------|
D|-----------------------------|---------------------------------|

G|----------------------|---------------------------|
D|-----------5----------|-7p5----------5------------|
A|-7--7-----------------|-----7------------------5--|
D|----------------------|----------5h7-------5h7----|

G|----------------------|---------------------------|
D|-----------5----------|-7p5----------5------------|
A|-7--7-----------------|-----7---------------------|
D|----------------------|----------5h7--------------|



************************************

| h   Hammer-on
| p   Pull-off
| r   Release
| b   Bend
| br  Bend release
| /   Slide up
| \   Slide down
| ~   Vibrato

************************************

            
            
Suggest correction
Creating personal tab
Creating personal tab
You can edit any tab online and save it as your Personal.

You can edit, replace or remove any tab part or add personal notes – all changes will be seen only by you.

Personal tabs can be accessed anytime from any device, even offline.
Learn more »
Give kudos to tab author, rate the tab!
1 2 3 4 5
comments
print report bad tab
guest
You may want to rate the tab now too:
select rating
Wanna post a correction for this tab? Suggest correction