Oops, an error
Loading. Please wait.

April 29 1992 Miami tab

version 1
version 1

Whole song

Interactive

by Sublime
1,825 views 1 this week
1 commentread comment
1 2 3 4 5
x 3
add to favorites
×
Save as Personal and add changes to this tab that will be seen only by you. Learn more ›
×
You can save this tab as Personal to edit and correct it or add notes. All changes will be seen only by you. Learn more »
launch autoscroll
font size
0
reset
how to read this tab
guitar tuner
edit
Autoscroll
slow
fast
+/-
esc
set tempo
stop
Author
Difficulty
Sublime
April 29,1992

This is one that looks different than the rest of the tabs.  But it's my own work.

Use a moderate delay for the intro, solo, chorus and outro.


Intro:
E|--------------------------------------------------------------|
B|--------------------------------------------------------------|
G|--------------------------------------------------------------|
D|--0--0-----0--------------0--0-----0--------------------------|
A|--------0-----3--------3--------0-----------------3--3--3--3--|
E|-----------------3--5-----------------1--1--1--1--------------|


Verse:
      D                                        A
E|--------------------------5--5--5--5--5--5--5--5--|
B|--7--7--7--7--7--7--7--7--5--5--5--5--5--5--5--5--|
G|--7--7--7--7--7--7--7--7--6--6--6--6--6--6--6--6--|
D|--7--7--7--7--7--7--7--7--7--7--7--7--7--7--7--7--|
A|--5--5--5--5--5--5--5--5--7--7--7--7--7--7--7--7--|
E|--------------------------5--5--5--5--5--5--5--5--|


Solo/ Fill:

E|--------------------------------|
B|--------------------------------|
G|--------------------------------|
D|--0--0--3--5--0--0--0--0--3--5--|
A|--------------------------------|
E|--------------------------------|


Chorus:

E|----------------------------------------------------------------|
B|----------------------------------------------------------------|
G|----------------------------------------------------------------|
D|--0--0-----0--------------0--0-----0----------------------------|
A|--------0-----3--------3--------0-----------------3--3--3--3----|
E|-----------------3--5-----------------1--1--1--1----------------|




Outro:
E|-----------------------|
B|-----------------------|
G|-----------------------|
D|--0-----0--------------|
A|-----0-----3--------3--|
E|--------------3--5-----|

Lyrics:

(Police Scanner)

don't know if you can,
But can you get an owner for Ons,
That's O-N-S,Junior Market,
The address is 1934 East Aneheim,
All the windows are busted out,
And it's like a free-for-all in here
And uh the owner shouldat least come
Down here and see if he can secure his business,
If he wants to...

(Bradley)

April 26th, 1992,
There was a riot on the streets,
Tell me where were you?
You were sittin' home watchin' your TV,
While I was paticipatin' in some anarchy.

First spot we hit it was my liqour store.
I finally got all that alcohol I can't afford.
With red lights flashin' time to retire,
And then we turned that liquor store into a structure fire.

Next stop we hit it was the music shop,
It only took one brick to make that window drop.
Finally we got our own p.a.
Where do you think I got this guitar that you're hearing today?
Hey!

(Police Scanner)

call fire, respond mobil station.
Alamidos in Anahiem,
Its uhh flamin up good.
10-4 Alamidos in Anaheim

(Bradley)

Never doin no time
When we returned to the pad to unload everything,
It dawned on me that I need new home furnishings.
So once again we filled the van until it was full,
Since that day my livin' room's been more comfortable.

Cause everybody in the hood has had it up to here,
It's getting harder and harder and harder each and every year.

Some kids went in a store with thier mother,
I saw her when she came out she was gettin some pampers.

They said it was for the black man,
They said it was for the mexican,
And not for the white man.

But if you look at the streets it wasn't about Rodney King,
It's bout this fucked up situation and these fucked up police.
It's about coming up and staying on top
And screamin' 187 on a mother fuckin' cop.
It's not written on the paper it's on the wall.
National guard??!
Smoke from all around,

Bo! bo! bo!

(Police Scanner)
(units, units be advised there is an attempt 211 to arrest now at 938 temple,
938 temple... 30 subjects with bags.. tryin to get inside the cb's house)
(Bradley)

(as long as I'm alive, I'mma live illegal)

Let it burn, wanna let it burn,
Wanna let it burn, wanna wanna let it burn

(I'm feelin' Sad and Blue)

Riots on the streets of Miami,
Oh, Riots on the streets of Chicago,
Oh, on the streets of Long Beach,
Mmm, and San Francisco (Boise Idaho),
Riots on the streets of Kansas City
(Salt Lake, Hunnington Beach, CA),
Tuscalusa Alabama (Arcada Compton Mischigan),
Cleveland Ohio,
Fountain Valley (Texas, Barstow - Let's do this every year),
Bear Mountain, Vista View (Twice a Year),
Eugene OR, Eureka CA (Let it burn, let it burn),
Hesperia (Oh, ya let it burn, wont'cha wont'cha let it burn),
Santa Barbara,Cuyamca, Nevada, (let it burn)
Phoenix Arizona,
San Diego, Lakewood Florida, (let it burn)
Fuckin... 29 palms (wontcha let it burn)

(Police Scanner)

Any units assist 334 willow,
Structure fire, and numerous subjects looting

10-15 to get rid of this looter..
10-4

            
            
Suggest correction
Creating personal tab
Creating personal tab
You can edit any tab online and save it as your Personal.

You can edit, replace or remove any tab part or add personal notes – all changes will be seen only by you.

Personal tabs can be accessed anytime from any device, even offline.
Learn more »
Give kudos to tab author, rate the tab!
1 2 3 4 5
comments
print report bad tab
1 comment total.
0 reply
rybread3 117 Oct 25, 2013 02:38 PM

It finally got accepted. Enjoy!!!

guest
You may want to rate the tab now too:
select rating
Wanna post a correction for this tab? Suggest correction