Oops, an error
Loading. Please wait.

Bad Fish Tab

version 3
version 3

Whole song

Interactive

by Sublime
5,546 views 6 this week
2 commentsread comments
1 2 3 4 5
x 4
add to favorites
×
Save as Personal and add changes to this tab that will be seen only by you. Learn more ›
×
You can save this tab as Personal to edit and correct it or add notes. All changes will be seen only by you. Learn more »
save as personal
new!
launch autoscroll
font size
0
reset
how to read this tab
guitar tuner
Autoscroll
slow
fast
+/-
esc
set tempo
stop
#----------------------------------PLEASE NOTE---------------------------------#
#This file is the author's own work and represents their interpretation of the #
#song. You may only use this file for private study, scholarship, or research. #
#------------------------------------------------------------------------------##


The verse is just A(V), B(VII), and G(III)

|------------------------------------------|
|------------------------------------------|
|-4-4-4b6r4-----2-4-1h2p1------------------|
|-----------2h4-----------2S4S2------------|
|-------------------------------2p0-2h4----|
|------------------------------------------|

|---------------------5----------------|
|-----------------------7--------------|
|-----------2p1-----------6-4-2h4-2----|
|---2h4-4-2-----2-2S4------------------|
|-4------------------------------------|
|--------------------------------------|


Tablature Legend
----------------
 h   - hammer-on
 p   - pull-off
 b   - bend
 r   - bend release
 /\  - slide
Suggest correction
comments
print report bad tab
2 comments total.
-1 reply
AICseaofsorrows 10 Jun 28, 2007 08:44 AM

this tabs blows its missing notes and whats with the $ signs thats not in ur legend. also the verse isnt 3 chords like u say. this is garbage.

0 reply
sean99766 10 Oct 29, 2008 03:53 PM

|-----------------------------------------------|
|-----------------------------------------------|
|-/6-/6-/6-4b6r4-----2-4-1h2p1------------------|
|----------------2h4-----------2/4\2------------|
|------------------------------------2p0-2h4----|
|-----------------------------------------------|

|-----------------------5-2---------------|
|-------------------------2-0---0---------|
|-----------2p1---------------2--2--------|
|---2h4-4-2-----2-2S4---------------------|
|-4---------------------------------------|
|-----------------------------------------|

guest
Wanna post a correction for this tab? Suggest correction