Oops, an error
Loading. Please wait.

Bad Fish bass

version 2
version 2

Whole song

Interactive

by Sublime
9,565 views 6 this week
3 commentsread comments
1 2 3 4 5
x 5
add to favorites
×
Save as Personal and add changes to this tab that will be seen only by you. Learn more ›
×
You can save this tab as Personal to edit and correct it or add notes. All changes will be seen only by you. Learn more »
launch autoscroll
font size
0
reset
guitar tuner
edit
Autoscroll
slow
fast
+/-
esc
set tempo
stop
Artist: Sublime
Song: Badfish
Tabbed by: Ryan VanPatten (futrebartender5@netscape.net)

Verse 1
G -------------------------------------------------------|
D ----------------7--9--7--6--7-----------9--11--12------|
A ------------7------------------------9-----------------|
E -----5--5-------------------------7--------------------|

Verse 2
G ---------------------------------|
D ----55------55------77-----------|
A -----------------------------77--|
E -3-3--3--3-3--3--5-5--5--5-5---5-|

Chorus
G ------------------------------------------------|
D ------------------------------------------------|
A -------------5-555-5-555------------------------|
E -5-555-5-555-------------3-333-3-333-5-555-5-555|

Verse 1 
Verse 2
Verse 1
Verse 2
Chorus x3
Verse 1
Verse 2
Verse 1 
Verse 2
Chorus x3	
(Guitar solo)
Verse 1
Verse 2
Verse 1
Verse 2
Chorus x3

            
            
Suggest correction
Creating personal tab
Creating personal tab
You can edit any tab online and save it as your Personal.

You can edit, replace or remove any tab part or add personal notes – all changes will be seen only by you.

Personal tabs can be accessed anytime from any device, even offline.
Learn more »
comments
print report bad tab
3 comments total.
0 reply
johnny@ngel 10 Nov 12, 2006 07:44 AM

good tab

0 reply
johnny@ngel 10 Nov 12, 2006 07:53 AM

------------------
-------9--11--12\--
----9----------------
-7---------------
i think it sounds a little better

0 reply
TheRootsRadish 168 Oct 12, 2009 11:09 PM

The chorous drops down to a D. You either have to tune it to drop D and adjust the tab or play it on a 5 string.

guest
Wanna post a correction for this tab? Suggest correction