Oops, an error
Loading. Please wait.

Bad Fish Bass Tab

version 3
version 3

Whole song

Interactive

40,264 views 57 this week
2 commentsread comments
1 2 3 4 5
accurate
x 9
add to favorites
launch autoscroll
font size
0
reset
guitar tuner
Tab Pro tools
  • play this tab
  • loop segment
  • change instrument
  • show fretboard
  • metronome
Autoscroll
slow
fast
+/-
esc
set tempo
stop
Contributor
-----------------
badfish / sublime
-----------------

tabbed by thomas
th0mash(at)o2(dot)pl


verse;
G||--------------------------|--------------------------|
D||-----------7--9--7--6--7--|--------9--11--12/--------|
A||--------7-----------------|------9-------------------|
E||--5---5-------------------|--7--------------------0--|

|---------------------------|---------------------------|
|--------5-5-5--------------|--------7-7-7--------------|
|---------------------5--5--|---------------------7--7--|
|--3---3--------3--3--------|--5---5--------5--5--------|


chorus in;
|--------------------------|--------------------------|
|--------------------------|--------------------------|
|--------------------------|--5---5-5--5--5--5--5--5--|
|--5---5-5--5--5--5--5--5--|--------------------------|

--------------------------|---------------------------|
--------------------------|--------------------7-7-7--|
--------------------------|---------------------------|
--3---3-3--3--3--3--3--3--|--5---5-5--5--5--5---------|


chorus main x3;
|-------------------------|--------------------------|
|-------------------------|--------------------------|
|--5---5-5--5--5--5--5----|--------------------------|
|-------------------------|--5---5-5--5--5--5--5--5--|


chorus outro;
|-------------------------|-------------------||
|-------------------------|-------------------||
|--5---5-5--5--5--5--5----|--7----------------||
|-------------------------|-------------------||
comments
print report bad tab
2 comments total.
0 reply
TheRootsRadish wrote on October 13 2009, 03:13 am

This looks just like the other tabs of this song that are also wrong, seriously, I'm going to have to write a tab for this song because none of these are right.

0 reply
Kamirault wrote on June 30 2010, 02:49 pm

the verse sounds better if you play it as
G||--------------------------|--------------------------|
D||-----------7-7/9-7-6-7----|--------9--11--12/--------|
A||--------7-----------------|------9-------------------|
E||--5---5-------------------|--7--------------------0--|
I didn't get the timing exact in the tab, but in that order sounds more like the real song.

I want to post or [tab]
guest
You may want to rate the tab now too:
select rating
Please do not post tabs as comments. Select "correction" instead!