Oops, an error
Loading. Please wait.

Date Rape solo tab

version 3
version 3

Solo

  • There is a part in measure 5 that is a little tric... Show more

Whole song

Interactive

by Sublime
157 views 1 this week
no commentswrite comment
1 2 3 4 5
3 more votes to show rating
add to favorites
×
Save as Personal and add changes to this tab that will be seen only by you. Learn more ›
×
You can save this tab as Personal to edit and correct it or add notes. All changes will be seen only by you. Learn more »
launch autoscroll
font size
0
reset
how to read this tab
guitar tuner
backing track
0:00
0:00
edit
Autoscroll
slow
fast
+/-
esc
set tempo
stop
Author
Difficulty
About this tab version
There is a part in measure 5 that is a little tricky because there are 2 guitars playing throughout the solo and in this part the left and right channel are playing different things. What I have written here is what is in the left channel if you have the ability to turn of either speaker. Everything is separated into licks rather than measures, just to be clear. Was this info helpful? Yes No
[Solo]
e|-------------------|---------12--------------------------------------|
B|--------8---10p8---|--10b12------12pbr10--8--10p8------8-------------|
G|--7/9~-------------|--------------------------------9----9-7-9PH--7--|
D|-------------------|-------------------------------------------------|
A|-------------------|-------------------------------------------------|
E|-------------------|-------------------------------------------------|

e|------------------------------------------------|
B|------------------------------------------------|
G|----------------------------------------7-9-9~--|
D|--7b9r7---5--7p5-----5----------5-7-8-9---------|
A|------------------7-----7-5-6-7-----------------|
E|------------------------------------------------|
                      |PM-----|

e|----------------------------|----------------------------------------|
B|--8/10--8--7h8p7------8-----|--10p8---10p8---10p8---10p8---10p8------|
G|-----------------7-9-----9--|-------9------9------9------9-----------|
D|----------------------------|-----------------------------------9-9--|
A|----------------------------|----------------------------------------|
E|----------------------------|----------------------------------------|

e|---------7--------7--------7--------7----------7--|--------------------------------------------------|
B|--10b12----10b12----10b12----10b12----10b12-------|--10b12r10--8--10p8----8----8--10b12r10--8--------|
G|--------------------------------------------------|--------------------9----9------------------7--9--|
D|--------------------------------------------------|--------------------------------------------------|
A|--------------------------------------------------|--------------------------------------------------|
E|--------------------------------------------------|--------------------------------------------------|

e|----------------------------|
B|----------------------------|
G|--9--9--9--10--10--10--9PH--|
D|----------------------------|
A|----------------------------|
E|----------------------------|


************************************

| p    Pull-off
| b    Bend
| pbr  Pre-bend release
| /    Slide up
| ~    Vibrato
| r    Release
| h    Hammer-on

************************************

            
            
Suggest correction
Creating personal tab
Creating personal tab
You can edit any tab online and save it as your Personal.

You can edit, replace or remove any tab part or add personal notes – all changes will be seen only by you.

Personal tabs can be accessed anytime from any device, even offline.
Learn more »
Give kudos to tab author, rate the tab!
1 2 3 4 5
comments
print report bad tab
guest
You may want to rate the tab now too:
select rating
Wanna post a correction for this tab? Suggest correction