Oops, an error
Loading. Please wait.

Date Rape bass

version 5
version 5

Whole song

Interactive

by Sublime
164 views 3 this week
no commentswrite comment
1 2 3 4 5
3 more votes to show rating
add to favorites
×
Save as Personal and add changes to this tab that will be seen only by you. Learn more ›
×
You can save this tab as Personal to edit and correct it or add notes. All changes will be seen only by you. Learn more »
launch autoscroll
font size
0
reset
guitar tuner
backing track
0:00
0:00
edit
Autoscroll
slow
fast
+/-
esc
set tempo
stop
Author
Difficulty
Song:  Date Rape
Band:  Sublime
Album: 40oz To Freedom

Intro
G|---------------------|------------------|---------------------|---------------------|----------------------|
D|---------------------|------------------|---------------------|--------7--8--7------|----------------------|
A|---------------------|-7--5-------------|---------------------|-7--10-----------10--|----------------------|
E|-0--0--0--1--1--1--0-|-------7--6--5--3-|-0--0--0--1--1--1--0-|---------------------|-5--5--5--6--6--6--5/-|

G|---------------------|------------------|--------------------------------|----------------------|
D|---------------------|------------------|--------------------------------|----------------------|
A|---------------------|------------------|-10------10------10------10-----|-9--9-9-----8--8-8----|
E|-0--0--0--1--1--1--0-|------------------|-----10------10------10------10-|---------9----------8-|


Verse
G|--------------------------|--------------------------|----------------|----------------|---------------|
D|----7/9---------7/9--9----|----7/9---------7/9--9----|----------------|----------------|---------------|
A|-7-------10--7---------10-|-7-------10--7---------10-|-------7--7-----|----------7-----|----6--6--9----|
E|--------------------------|--------------------------|-5--8--------8--|-5--8--8-----8--|-7-----------7-|

-------------|
-------------|
-------------|
-8--8--7--7--|

G|--------------------------|--------------------------|----------------|----------------|---------------|
D|----7/9---------7/9--9----|----7/9---------7/9--9----|----------------|----------------|---------------|
A|-7-------10--7---------10-|-7-------10--7---------10-|-------7--7-----|----------7-----|----6--6--9----|
E|--------------------------|--------------------------|-5--8--------8--|-5--8--8-----8--|-7-----------7-|

-------------|
-------------|
-------------|
-8--8--7--7--|

G|--------------------------|--------------------------|--------------------------|----------------|
D|----7/9---------7/9--9----|----7/9---------7/9--9----|--------------------------|----------------|
A|-7-------10--7---------10-|-7-------10--7---------10-|----7/9---------7/9--9----|-------7--7-----|
E|--------------------------|--------------------------|-7-------10--7---------10-|-5--8--------8--|

----------------|
----------------|
----------7-----|
-5--8--8-----8--|

G|--------------------------|--------------------------|--------------------------|----------------|
D|----7/9---------7/9--9----|----7/9---------7/9--9----|--------------------------|----------------|
A|-7-------10--7---------10-|-7-------10--7---------10-|----7/9---------7/9--9----|-------7--7-----|
E|--------------------------|--------------------------|-7-------10--7---------10-|-5--8--------8--|


----------------|-------------|
----------------|-------------|
----------7-----|-------------|
-5--8--8-----8--|-8--8--7--7--|


G|-----------------|-------------------------------|-------------------------------|
D|-----------------|-------------------------------|-------------------------------|
A|-7---7---7---7---|-7-------7-------7-------7-7---|-7-------7-------7-------7-7---|
E|---0---0---0---0-|-----7-------7-------7-------7-|-----7-------7-------7-------7-|

G|------------------------|-------------------------|--------------------------------|
D|------------------------|-------------------------|--------------------------------|
A|------------------------|-------------------------|-10--10--10--10--10--10--10--10-|
E|-7--7--7--7--7--7--7--7-|-8--8--8--8--8--8--8--10-|--------------------------------|

--------------------------------|---------------|
--------------------------------|---------------|
--------------------------------|---------------|
-10--10--10--10--10--10--10--10-|-7--7--7--7--7-|

G|-----------------|
D|-----------------|
A|-7-7-7-7-7-7-7-7-|
E|-----------------|


Chorus
G|----------------|---------------|----------------|---------------|
D|----------------|---------------|----------------|---------------|
A|-7--------------|-7-------------|-7--------------|-7-------------|
E|----7-7-8-8-5-5-|----7-7-8-8-5--|----7-7-8-8-5-5-|----7-7-8-8-5--|

G|-----------------|-----------------|-----------------|------------------------------------|
D|-----------------|-----------------|-----------------|------------------------------------|
A|-----------------|-----------------|-----------------|------------------------------------|
E|-6/7-7-7-7-7-7-7-|-7-7-7-7-7-7-8-7-|-6/7-7-7-7-7-7-7-|-7-7-7-7/19-19-19-19-19-19-19-20-19-|

Guitar Solo
G|--------------------------|--------------------------|--------------------------|--------------------------|
D|----7/9---------7/9--9----|----7/9---------7/9--9----|----7/9---------7/9--9----|----7/9---------7/9--9----|
A|-7-------10--7---------10-|-7-------10--7---------10-|-7-------10--7---------10-|-7-------10--7---------10-|
E|--------------------------|--------------------------|--------------------------|--------------------------|

G|--------------------------|--------------------------|----------------|----------------|
D|----7/9---------7/9--9----|----7/9---------7/9--9----|----------------|----------------|
A|-7-------10--7---------10-|-7-------10--7---------10-|-------7--7-----|----------7-----|
E|--------------------------|--------------------------|-5--8--------8--|-5--8--8-----8--|


Intro
G|---------------------|------------------|---------------------|---------------------|----------------------|
D|---------------------|------------------|---------------------|--------7--8--7------|----------------------|
A|---------------------|-7--5-------------|---------------------|-7--10-----------10--|----------------------|
E|-0--0--0--1--1--1--0-|-------7--6--5--3-|-0--0--0--1--1--1--0-|---------------------|-5--5--5--6--6--6--5/-|

G|---------------------|------------------|--------------------------------|----------------------|
D|---------------------|------------------|--------------------------------|----------------------|
A|---------------------|------------------|-10------10------10------10-----|-9--9-9-----8--8-8----|
E|-0--0--0--1--1--1--0-|------------------|-----10------10------10------10-|---------9----------8-|

Verse
G|--------------------------|--------------------------|----------------|----------------|---------------|
D|----7/9---------7/9--9----|----7/9---------7/9--9----|----------------|----------------|---------------|
A|-7-------10--7---------10-|-7-------10--7---------10-|-------7--7-----|----------7-----|----6--6--9----|
E|--------------------------|--------------------------|-5--8--------8--|-5--8--8-----8--|-7-----------7-|

-------------|
-------------|
-------------|
-8--8--7--7--|

G|--------------------------|--------------------------|---------------------------|
D|----7/9---------7/9--9----|----7/9---------7/9--9----|---------------------------|
A|-7-------10--7---------10-|-7-------10--7---------10-|---------------------------|
E|--------------------------|--------------------------|-5--5--5--5--5--5--5--5--5-|

G|--------------------------|--------------------------|--------------------------|----------------|
D|----7/9---------7/9--9----|----7/9---------7/9--9----|--------------------------|----------------|
A|-7-------10--7---------10-|-7-------10--7---------10-|----7/9---------7/9--9----|-------7--7-----|
E|--------------------------|--------------------------|-7-------10--7---------10-|-5--8--------8--|

----------------|
----------------|
----------7-----|
-5--8--8-----8--|

G|--------------------------|--------------------------|--------------------------|
D|----7/9---------7/9--9----|----7/9---------7/9--9----|--------------------------|
A|-7-------10--7---------10-|-7-------10--7---------10-|----7/9---------7/9--9----|
E|--------------------------|--------------------------|-7-------10--7---------10-|

----------------------------|-------------|
----------------------------|-------------|
----------------------------|-------------|
-5--5--5--5h6--5--5--5--5h6-|-8--8--7--7--|

G|-----------------|-----------------|-------------------------------|-------------------------------|
D|-----------------|-----------------|-------------------------------|-------------------------------|
A|-7---7---7---7---|--7---7---7---7--|-7-------7-------7-------7-7---|-7-------7-------7-------7-7---|
E|---0---0---0---0-|---0---0---0---0-|-----7-------7-------7-------7-|-----7-------7-------7-------7-|

G|-----------------|-------------------------------|-------------------------------|
D|-----------------|-------------------------------|-------------------------------|
A|-7---7---7---7---|-7-------7-------7-------7-7---|-7-------7-------7-------7-7---|
E|---0---0---0---0-|-----7-------7-------7-------7-|-----7-------7-------7-------7-|

G|------------------------|-------------------------|--------------------------------|
D|------------------------|-------------------------|--------------------------------|
A|------------------------|-------------------------|-10--10--10--10--10--10--10--10-|
E|-7--7--7--7--7--7--7--7-|-8--8--8--8--8--8--8--10-|--------------------------------|

--------------------------------|---------------|
--------------------------------|---------------|
--------------------------------|---------------|
-10--10--10--10--10--10--10--10-|-7--7--7--7--7-|

G|-----------------|
D|-----------------|
A|-7-7-7-7-7-7-7-7-|
E|-----------------|


Chorus
G|----------------|---------------|----------------|---------------|
D|----------------|---------------|----------------|---------------|
A|-7--------------|-7-------------|-7--------------|-7-------------|
E|----7-7-8-8-5-5-|----7-7-8-8-5--|----7-7-8-8-5-5-|----7-7-8-8-5--|

G|-----------------|-----------------|-----------------|------------------------------------|
D|-----------------|-----------------|-----------------|------------------------------------|
A|-----------------|-----------------|-----------------|------------------------------------|
E|-6/7-7-7-7-7-7-7-|-7-7-7-7-7-7-8-7-|-6/7-7-7-7-7-7-7-|-7-7-7-7/19-19-19-19-19-19-19-20-19-|

G|----------------|---------------|----------------|---------------|
D|----------------|---------------|----------------|---------------|
A|-7--------------|-7-------------|-7--------------|-7-------------|
E|----7-7-8-8-5-5-|----7-7-8-8-5--|----7-7-8-8-5-5-|----7-7-8-8-5--|

G|-----------------|-----------------|-----------------|----------------------------------|
D|-----------------|-----------------|-----------------|----------------------------------|
A|-----------------|-----------------|-----------------|----------------------------------|
E|-7-7-7-7-7-7-7-7-|-7-7-7-7-8-8-7-7-|-7-7-7-7-7-7-7-7-|-7-7-7-7/19-19-19-19-19-19-19--20-|

Horn Solo
G|----------------------|--------------------|----------------------|-----------5--2----|
D|---------9---------9--|--------------------|----------------------|-----------------3-|
A|--7--10-----7--10-----|-----6--9-----6--9--|-----7--10-----7--10--|-----2--5----------|
E|----------------------|--7--------7--------|--8---------8---------|--3----------------|

G|----------------------|--------------------|----------------------|--------------2--5-|
D|---------9---------9--|--------------------|----------------------|-----------3-------|
A|--7--10-----7--10-----|-----6--9-----6--9--|-----7--10-----7--10--|-----2--5----------|
E|----------------------|--7--------7--------|--8---------8---------|--3----------------|

Outro
G|----------------|----------------|----------------|-----------------------|
D|----------------|----------------|----------------|-----------------------|
A|-7--7-7-7-7-7-7-|----------------|----------------|-10--10-10-10-10-10-10-|
E|----------------|-7--7-7-7-7-7-7-|-8--8-8-8-8-8-8-|-----------------------|

G|----------------|----------------|-----------------------|-12--12-12-12-12-12-12-|
D|----------------|-9--9-9-9-9-9-9-|-10--10-10-10-10-10-10-|-----------------------|
A|-7--7-7-7-7-7-7-|----------------|-----------------------|-----------------------|
E|----------------|----------------|-----------------------|-----------------------|

G|-------------------------|-------------------------|-------------------------|-------------------------|
D|-------------------------|-------------------------|-------------------------|-------------------------|
A|-7-----------7-----------|-7-----------7-----------|-7-----------7-----------|-7-----------7-----------|
E|----7--8--5-----7--8--5--|----7--8--5-----7--8--5--|----7--8--5-----7--8--5--|----7--8--5-----7--8--5--|

-----|
-----|
-7-7-|
-----|

            
            
Suggest correction
Creating personal tab
Creating personal tab
You can edit any tab online and save it as your Personal.

You can edit, replace or remove any tab part or add personal notes – all changes will be seen only by you.

Personal tabs can be accessed anytime from any device, even offline.
Learn more »
Give kudos to tab author, rate the tab!
1 2 3 4 5
comments
print report bad tab
guest
You may want to rate the tab now too:
select rating
Wanna post a correction for this tab? Suggest correction