Oops, an error
Loading. Please wait.

Doin Time Tab

version 1
version 1

Whole song

Interactive

34,959 views 63 this week
7 commentsread comments
1 2 3 4 5
x 16
add to favorites
launch autoscroll
font size
0
reset
how to read this tab
guitar tuner
×
Best way to learn
"Doin Time"
Autoscroll
slow
fast
+/-
esc
set tempo
stop
This may seem easy to play but,its tricky when you want to sound right.This is the right 
way to play,even though you might have seen different versions of this.This is the way 
Brad Nowell plays this song.It may take some practice before you get it right.
Any questions?Email me at surreal_pf@yahoo. Good Luck!

------------------------------------------------------------
----3--5------3--3------------7r-------------------8r-------
----3--5------3--5------------7r-------------10-------------
-5---------5------------5-----------------10----10----------
----------------------------------------8-------------------
---------------------------------------8--------------------
Play the first riff over and over 8 times,then cut to the second riff.Reapeat   
r=let it ring

solo
"me and my girl,we got this relationship..."
--8----7----6----8-----------------------------------------
--9----8----7----9-----------------------------------------
--9----8----7----9-----------------------------------------
--7----6----5----7-----------------------------------------
-----------------------------------------------------------
-----------------------------------------------------------
play this 8 times and cut back to the first riff.

Well,thats it,emial me if you would like any other sublime songs i might,and probably know.
Peace.
Suggest correction
comments
print report bad tab
7 comments total. Showing first comments.
0 reply
greatest_hits 51 Aug 02, 2006 10:56 PM

what are you thinking

0 reply
floydzeppelin 20 Sep 05, 2006 05:28 PM

that's the synthesizer part u tabbed out

0 reply
s4t2p0 34 Apr 20, 2013 11:31 AM

I dont know if this is necesarily correct but I really like playing it over the song kind of fast

--8----7----6----8-----------------------------------------
--9----8----7----9-----------------------------------------
--9----8----7----9-----------------------------------------
--7----6----5----7-----------------------------------------
-----------------------------------------------------------
-----------------------------------------------------------

like this:

--8888----7777----6666----8888-----------------------------
--9999----8888----7777----9999-----------------------------
--9999----8888----7777----9999-----------------------------
--7777----6666----5555----7777-----------------------------
-----------------------------------------------------------
-----------------------------------------------------------

guest
You may want to rate the tab now too:
select rating
Wanna post a correction for this tab? Suggest correction