Oops, an error
Loading. Please wait.

Ebin bass

version 1
version 1

Whole song

Interactive

by Sublime
21,702 views 90 this week
4 commentsread comments
1 2 3 4 5
x 10
add to favorites
×
Save as Personal and add changes to this tab that will be seen only by you. Learn more ›
×
You can save this tab as Personal to edit and correct it or add notes. All changes will be seen only by you. Learn more »
launch autoscroll
font size
0
reset
guitar tuner
edit
Autoscroll
slow
fast
+/-
esc
set tempo
stop
Band: Sublime
Song Title: Ebin
Album: 40oz To Freedom 
Author: Lbdas439@aol.com,Mike
Tuning:standard

Once again, this is already in your archive, but this version
is actully correct. This song has alot of repition so listen 
to the cd and figure it out. It can can be hard on some 
fast parts.

G|--|-------------------7----------------------
D|--|--------------7-9------9------------------
A|--|----------7-9-----------------------------  
E|-7|---7--10----------------------------------

G|--|------999--|------------7-----7-----------
D|--|-----------|--7h8h9--------9--------------
A|-7|---7-------|------------------------------  
E|--|-----------|------------------------------

G|--|-------------------7----------------------
D|--|--------------7-9------9------------------
A|--|----------7-9-----------------------------  
E|-7|---7--10----------------------------------


G|--|------999---------------------------------
D|--|--------------6-7-8-9---------------------
A|-7|---7-------7------------------------------  
E|--|------------------------------------------

G|---|-----|---|-----|----------|----------7---
D|---|-----|---|-----|----------|-----7-9----9-
A|---|--7--|---|--7--|----------|-7-9----------  
E|-7-|-----|-7-|-----|-7-7-7--10|--------------

G|-------|-9-9-9-|--------7---7-|----------|--------7--
D|-------|-------|-7h8h9----9---|----------|----7-9---9
A|-------|-------|--------------|----------|7-9--------  
E|-7-7-7-|-------|--------------|-7-7-7--10|-----------

you play the first part here....there alot of repitition....


G|-------|--------|--------|------|------|------
D|-------|--------|--------|------|------|------
A|-------|--------|---0-1-2|------|------|------  
E|3-3-3-3|-3-3-2-2|-2------|-7-7-7|-7-7-7|-7-7-7

G|------|------|------|-------
D|------|------|------|-------
A|------|------|------|-------  
E|-7-7-7|-7-7-7|-7-7-7|-7-7-7-

G|------|------|------|-------
D|------|------|------|-------
A|-5-5-5|-5-5-5|-5-5-5|-5-5-5-
E|------|------|------|-------

G|------|------|------|-------
D|------|------|------|-------
A|------|------|------|-------
E|-5-5-5|-5-5-5|-5-5-5|-5-5-5-

G|------|------|------|-------
D|------|------|------|-------
A|-7-7-7|-7-7-7|-7-7-7|-7-7-7-
E|------|------|------|-------

G|--------|--------|--------|--------|
D|-9-9-9--|-9-9-9--|-9-9-9--|-9-9-9--|
A|-------9|-------9|-------9|-------9|     
E|--------|--------|--------|--------|

G|-----------|-----------|-----------|-----------|
D|-12-12-12--|-12-12-12--|-12-12-12--|-12-12-12--|
A|---------12|---------12|---------12|-----------|     
E|-----------|-----------|-----------|---------12|

G|-----------|-----------|-----------|-----------|
D|-----------|-----------|-----------|-----------|
A|-12-12-12--|-12-12-12--|-12-12-12--|-----------|
E|---------12|---------12|---------12|12-12-12-12|

G|-----------|-----------|-----------|-----------|
D|-----------|-----------|-----------|-----------|
A|-----------|-----------|-----------|-----------|
E|12-12-12-12|12-12-12-12|12-12-12-12|12-12-12-12|    


G|--------------|------------|-----------|
D|-------7-7-9-9|-------12-12|11-11-10-10|
A|----9-9-------|------------|-----------|
E|7-7-----------|10-10--10-10|-9--9--8--8|  

G|--------------|------------|-----------|
D|-------5-5-7-7|-----6------|7---8--9---|
A|---7-7--------|7-7----7----|--7--------|
E|5-5-----------|------------|-----------|


G|--------------|------------|-----------|-----------|
D|-------12-----|12--12h13h14|12-12-12-12|12-12-12-12|
A|14-14------14-|--14--------|-----------|-----------|
E|--------------|------------|-----------|-----------|


G|--------------------|-----------|-----------|
D|------11---12--13-14|-----------|-----------|
A|12-12---12---12-----|-----------|-----------|
E|--------------------|12-12-12-12|12-12-12-12|  

            
            
Suggest correction
Creating personal tab
Creating personal tab
You can edit any tab online and save it as your Personal.

You can edit, replace or remove any tab part or add personal notes – all changes will be seen only by you.

Personal tabs can be accessed anytime from any device, even offline.
Learn more »
comments
print report bad tab
4 comments total. Showing first comments.
0 reply
mattridley 30 Jan 12, 2006 07:10 PM

middle runs are missing leading-in notes
leading back into main verse has tabbed going from 0-1-2 on A string then jumping to 7 on E string...its ALL on E string im 99% sure
has no ending?

+1 reply
socratic.method 10 May 17, 2007 03:04 PM

G|--|-------------------7---------9999-------7--7--
D|--|--------------7-9------9----------7h8h9--9----
A|--|-----5-7-7/9--------------77------------------
E|-7|---7------------------------------------------

G|--|-------------------7------9999------------
D|--|--------------7-9----9---------6-7-8-9----
A|--|------5-7-7/9----------77-----7-----------
E|-7|---7--------------------------------------


i like that a little better for the intro

0 reply
socratic.method 10 May 17, 2007 03:05 PM

hah my bad i didnt realize you already had all that... so i guess the only difference is that one little part at the begginging

guest
Wanna post a correction for this tab? Suggest correction