Oops, an error
Loading. Please wait.

Ebin Tab

version 1
version 1

Whole song

Interactive

19,547 views 15 this week
1 commentread comment
1 2 3 4 5
worth learning
x 7
add to favorites
launch autoscroll
font size
0
reset
how to read this tab
guitar tuner
Autoscroll
slow
fast
+/-
esc
set tempo
stop
Help us to improve Ultimate-Guitar.com Take our survey!
×
slides / (up) \ (down) h=hammers p=pull off ~=vibrato 

x b y= bend the x fret to equal y fret r=release bend 

[x]= artificial harmonic (follow through with thumb) 

(x)= a note that sounds like it is on another guitar 

Chords used for the intro and most of the verse 
e|----3-------1-------------| 
B|----4-------1-------------| 
G|----5-------1-------------| 
D|----5-------3-------------| 
A|----3-------3-------------| 
E|------------1-------------| 
Rhythms will vary from ska to just soft arpeggios 

"I feel like my whole life is rearranged" 
e|---4----3--3--3--3---| 
B|---4----3--4--3--4---| 
G|---5----4--5--4--5---| 
D|---6----5--5--5--5---| 
A|---6----5--3--5--3---| 
E|---4----3-----3------| 

"oh how you've changed" 
e|-----3-------3-----3----4p3---3----------------------1------| 
B|-----4-------4---4---4------4----3------3------------1------| 
G|----5--------3-------------------------3------------2-------| 
D|---5----------------------------------3------------3--------| 
A|--3----------------------------------1------------3---------| 
E|-------------------------------------------------1----------| 

"I give you a hard time..." 
e|--3--3--3--3--3--3--3--3--1--1--1--1--1--1--1--1--| 
B|--4--4--4--4--4--4--4--4--3--3--3--3--1--1--1--1--| 
G|--5--5--5--5--3--3--3--3--3--3--3--3--2--2--2--2--| 
D|--------------------------------------------------| 
A|--------------------------------------------------| 
E|--------------------------------------------------| 
upstrokes only 

"my friend ebin is a nazi!" 
e|--3-x-3-x-3-x-3-x-----------------6-x-6-x-6-x-6-x-5-x-5-x-5-x-5-| 
B|--4-x-4-x-4-x-4-x-8-x-8-x-8-x-8-x-6-x-6-x-6-x-6-x-6-x-6-x-6-x-6-| 
G|--5-x-5-x-5-x-5-x-8-x-8-x-8-x-8-x-7-x-7-x-7-x-7-x-5-x-5-x-5-x-5-| 
D|--5-x-5-x-5-x-5-x-8-x-8-x-8-x-8-x-8-x-8-x-8-x-8-----------------| 
A|--3-x-3-x-3-x-3-x-6-x-6-x-6-x-6-x-8-x-8-x-8-x-8-----------------| 
E|----------------------------------6-x-6-x-6-x-6-----------------| 

Solo 
e|-----------------------------------------------------------| 
B|-----------------------------------------------------------| 
G|--10b12-10b12-10b12r10p8----8----10p8---10p8---10p8--------| 
D|-------------------------10---10------10-----10-----(10)---| 
A|-----------------------------------------------------------| 
E|-----------------------------------------------------------| 

pm................................. 
e|-11p10p8---------------------------------------------------------| 
B|---------11p10p8-------------------------------------------------| 
G|-----------------10-8--------------------------------8----8------| 
D|----------------------10~--------------------8---8-10---10---10--| 
A|----------------------------------------8-10--10-----------------| 
E|-----------------------------/8-8-11-11--------------------------| 

e|--------------------------------------------------------| 
B|--------------------------------------------------------| 
G|-[10]b11-[10]b11-[10]b11--[10]b12r10p8---(10b12r10)-----| 
D|---------------------------------------10~--------------| 
A|--------------------------------------------------------| 
E|--------------------------------------------------------| 

(make sure to do a full artificial harmonic) 
e|--------------------------------------------------------------------| 
B|--------------------------------------------------------------------| 
G|------8-[10]b12-8----------8-[10]b12-8----------8-10p8----10p8------| 
D|-8h10-------------10--8h10-------------10--8h10--------10------10---| 
A|--------------------------------------------------------------------| 
E|--------------------------------------------------------------------| 

e|----11p10p8---------------------------------------------------------| 
B|------------11p10p8---------8------------8------8------8-----8------| 
G|-8------------------10-8-10---10-8--10b12--10b12--10b12-10b12-------| 
D|--------------------------------------------------------------------| 
A|--------------------------------------------------------------------| 
E|--------------------------------------------------------------------| 

e|--8----8------------------------------------------------------------| 
B|----11---11---------------------------------------------------------| 
G|-------------10-8---------------------------------------------------| 
D|------------------10-8----10-8-------------8------------------------| 
A|-----------------------10------10-8-6~---------8---10---8--10--8-8~-| 
E|--------------------------------------------------------------------| 

e|-------------------------------------------------------------| 
B|-------------------------------------------------------------| 
G|------------------8-------------8---[10]p8----8--------------| 
D|-8---------8--10----10~------10---10-------10--10-8----------| 
A|----8--10------------------------------------------10-8-[6]--| 
E|-------------------------------------------------------------| 
pm............................. 
e|--------------------------------------------------------------------| 
B|--------------------------------------------------------------------| 
G|-----------------------8----8----[10]b11-----[10]b11-----[10]-[8]b9~| 
D|-------------8----8------10---10------[10]b11------[10]b11----------| 
A|--------8-10---10---10----------------------------------------------| 
E|/8-8-11-------------------------------------------------------------| 


pm ................ it gets kinda faded here 
e|--------------------------------------------------------------------| 
B|----------------------------------------------------([6]b8)---------| 
G|-------------------------8--10p8---10p8---10p8--10p8--10p8--10p8----| 
D|------------------8--10---------10-----10-----10----10----10--------| 
A|------------8-10----------------------------------------------------| 
E|--/8-8-8-11---------------------------------------------------------| 
"out my window..." 
e|-------------------------------------| 
B|----------------------------(8)------| 
G|---10p8--10p8--10p8--[10]b12~--------| 
D|-10----10----10----10----------------| 
A|-------------------------------------| 
E|-------------------------------------|
Suggest correction
What's this?
You can suggest a correction to this tab. Community and Mods will review your correction and vote to approve or reject it.
comments
print report bad tab
1 comment total.
0 reply
ienjoythings 18 wrote on December 18 2013, 06:07 pm

how does someone transcribe a whole song a half step above the original key?

guest
You may want to rate the tab now too:
select rating
Please do not post tabs as comments. Select "correction" instead!