Oops, an error
Loading. Please wait.

Lou Makes Friends intro tab

by Sublime
2,412 views 1 this week
4 commentsread comments
1 2 3 4 5
x 5
add to favorites
×
Save as Personal and add changes to this tab that will be seen only by you. Learn more ›
×
You can save this tab as Personal to edit and correct it or add notes. All changes will be seen only by you. Learn more »
launch autoscroll
font size
0
reset
how to read this tab
guitar tuner
edit
Autoscroll
slow
fast
+/-
esc
set tempo
stop
Author
Difficulty
This is the main riff if you have Everything under the sun track 18 disc 1.


e|-----------------------------------------------------------------------|
b|-----------------------------------------------------------------------|
g|-----------------------------------------------------------------------|
d|-----------------------------------------------------------------------|
a|--------2-3-3-2-3-5----------------------------------------------------|
E|-3-3-3-3---------------------------------------------------------------|

I am pretty sure this is right Enjoy!

            
            
Suggest correction
Creating personal tab
Creating personal tab
You can edit any tab online and save it as your Personal.

You can edit, replace or remove any tab part or add personal notes – all changes will be seen only by you.

Personal tabs can be accessed anytime from any device, even offline.
Learn more »
comments
print report bad tab
4 comments total. Showing first comments.
0 reply
dondestatugato 10 Jun 02, 2008 12:57 PM

dude plaese put up the rest dowg!

0 reply
Holy. 50 Sep 04, 2008 06:03 PM

wtf is this shit.

who can't figure that out?

0 reply
Munshter 15 Jun 11, 2009 09:14 PM

MainRiff
e|---4-----4-----------|
b|---4-----6-----------|
g|---5-----6-----------|

guest
You may want to rate the tab now too:
select rating
Wanna post a correction for this tab? Suggest correction