Oops, an error
Loading. Please wait.

Rivers Of Babylon Tab

version 1
version 1

Whole song

152,464 views 84 this week
17 commentsread comments
1 2 3 4 5
excellent!
x 65
add to favorites
launch autoscroll
font size
0
reset
how to read this tab
guitar tuner
Tab Pro tools
  • play this tab
  • loop segment
  • change instrument
  • show fretboard
  • metronome
×
Best way to learn
"Rivers Of Babylon"
Autoscroll
slow
fast
+/-
esc
set tempo
stop
Capo
1st fret
This is a compilation of other tabs I?ve seen and my own way of playing it. I think it matches quite well.

Intro - Capo 1st Fret
|-------------3---3-3---3-3-3-3----------------2-----2-3-2-2(0)--------------|
|-------------0---0-0---0-0-0-0----------------3-----3-3-3-3(0)--------------|
|-------------0---0-0---0-0-0-0(2x)------------2-----2-2-2-2(0)--0---0-------|
|-------------0---0-0---0-0-0-0----------------0-----0---------2--0h2----0---|
|-----2-2-3-0-2---2-2---2-2-2-2---2-2-3-3-2-0--0-----0----------------0h2----|
|-3-3---------3---3-3---3-3-3-3----------------------------------------------|

|-----3-3---3-3-3-3----------------------------------------------------------|
|-----0-0---0-0-0-0----------------------------------------------------------|
|-----0-0---0-0-0-0----------------------------------------------------------|
|-----0-0---0-0-0-0----------------------------------------------------------|
|-----2-2---2-2-2-2----------------------------------------------------------|
|-3---3-3---3-3-3-3----------------------------------------------------------|

Verse:
By the rivers of [G]Babylon
Where he sat down
And there he [D]went
When he remembered [G]Zion
Over the wicked carry us away captivity
[C]Required from us this [G]song
How can we sing King Alfa's song in a [D]strange [G]land
So let the words of our [D]mouth and the medi[G]tation of our [D]heart
Be ac[G]ceptable in thy [D]sight
Over I [G]

Instrumental Break
|-------------3---3-3---3-3-3-3----------------2-----3p2-2-2---2-------------|
|-------------0---0-0---0-0-0-0----------------3-----3-3-3-3---3-------------|
|-------------0---0-0---0-0-0-0(2x)------------2---2-2-2-2-2---2----0--------|
|-------------0---0-0---0-0-0-0----0---0/2-0---0---0-----0-0---0-0h2----0----|
|-----2-2-3-0-2---2-2---2-2-2-2----2---2/3-2(0)0---0-----0-0---0-----0h2--0-2|
|-3-3---------3---3-3---3-3-3-3----------------------------------------------|

|-3-----3---3---3-3----------------------------------------------------------|
|-0-----0---0---0-0----------------------------------------------------------|
|-0-----0---0---0-0----------------------------------------------------------|
|-0-----0---0---0-0----------------------------------------------------------|
|-2-----2---2---2-2----------------------------------------------------------|
|-3-----3---3---3-3----------------------------------------------------------|

Final Verse:
By the rivers of [G]Babylon
Where he sat down
And there he [D]went
When he remembered [G]Zion
Over the wicked carry us away captivity
[C]Required from us this [G]song
How can we sing King Alfa's song in a [D]strange [G]land
comments
print report bad tab
17 comments total. Showing first comments.
0 reply
stevehasser wrote on January 26 2004, 12:00 am

i think you were right when you said it matches up very well. great job.

0 reply
RootBoySLIM251 wrote on December 24 2005, 12:56 pm

Good job man.

+3 reply
jhm5005 wrote on March 6 2007, 06:12 pm

try this for intro and 'solo' part after intro

|-------------3---3-3---3-3-3-3
|-------------0---0-0---0-0-0-0
|-------------0---0-0---0-0-0-0 x2
|-----------0-0---0-0---0-0-0-0
|-----2-2-3-2-2---2-2---2-2-2-2
|-3-3-------3-3---3-3---3-3-3-3

sounds good, i think (just a little change)

I want to post or [tab]
guest
You may want to rate the tab now too:
select rating
Please do not post tabs as comments. Select "correction" instead!