Oops, an error
Loading. Please wait.

Santeria Tab

version 3
1,533,763 views 1,995 this week
67 commentsread comments
1 2 3 4 5
excellent!
x 390
add to favorites
launch autoscroll
font size
0
reset
how to read this tab
guitar tuner
Autoscroll
slow
fast
+/-
esc
set tempo
stop
Help us to improve Ultimate-Guitar.com Take our survey!
×
Santeria - Sublime
Tabbed by:allen
Tuning: standard


[Intro]

e|---------------------------------------------------------------------------|
B|------------------------4-----4-----------------5--------------7-----------|
G|------9-------9-----------5-----5--------6p4-------4h6p4---------8---------|
D|----9---9-------9-----------6-----6----6-----6---------------------9-------|
A|--7-------7-7----------6-------------4-------------------4/7\6-------6-----|
E|-------------------7\4-----------------------------------------------------|


[Verse] 

use up stokes and only hit the highest 2 or 3 strings

e|-----------------4-----7---------------------------------------------------|
B|---9------4------5-----7---------------------------------------------------|
G|---9------5------6-----8---------------------------------------------------|
D|---9-x4---6-x4---6-x4--9-x4------------------------------------------------|
A|---7------6------4-----9---------------------------------------------------|
E|----------4------------7---------------------------------------------------|


[Chorus] 
        
e|---5-------7-------------------------|-5-------7----------------------------|
B|-----5-------7-----9----7--------5---|---5-------7-----9---7--5-------------|
G|-------6-------8----9--8-------6---6-|-----6-------8----9-8-----6-----------|
D|---------7-------9-----------7-------|-------7-------9------------7---------|
A|---------------------------7---------|------------------------------7-------|
E|-------------------------------------|--------------------------------------|

e|---5--------7------------------------|-5------7-------|
B|-----5--------7--------9--7-------5--|---5------7-----|
G|-------6--------8----9—--8------6--6-|-----6------8---|
D|---------7--------9-----------7-----5|------7-------9-|
A|----------------------------7--------|----------------|
E|-------------------------------------|----------------|


[Solo]
        
e|-------------------------------------------|-------------------------------|
B|-------------------------------------------|-------------------------------|
G|---------------9—11^13-11-9--8-8-8p6—8^9^8-|6-6p4---4----------------------|
D|----------9h11-----------------------------|------6---6p4—2h4p2---2--------|
A|---7—9h11----------------------------------|--------------------4---4-2----|
E|-------------------------------------------|-------------------------------|

e|-----------------------------|-7h9-9p7--------------------------------------|
B|--------------------------5--|---------9p7----------------------------------|
G|-------------------4h5h6-----|-------------9p6h9—9p6------------------------|
D|-------------4h5h6-----------|-----------------------9------9----------10-10|
A|-------2h3h4-----------------|-------------------------9/11---11-9--11--11--|
E|-2h3h4-----------------------|----------------------------------------------|

e|--------9-------------9----------------------------------------------------|
B|----------9-------------9--------------------------------------------------|
G|--11^13-----9—-11^13------9—-11^13^11---11^13^11—9-11-9--------------------|
D|---------------------------------------------------------------------------|
A|---------------------------------------------------------------------------|
E|---------------------------------------------------------------------------|


***********************************
| ^  bend to the next note
| /  slide up
| \  slide down
| h  hammer-on
| p  pull-off
| ~  vibrato
| +  harmonic
| x  Mute note
**********************************
Suggest correction new What's this?
You can suggest a correction to this tab. Community and Mods will review your correction and vote to approve or reject it.
comments
print report bad tab
67 comments total. Showing first comments.
0 reply
OAM144 46 wrote on January 29 2004, 12:00 am

awesome tab, sound perfect to me

+35 reply
nadroJ22 256 wrote on September 23 2004, 12:00 am

The following is the correct chorus tab!...When you play it you'll forget all these other tabs:

e|--5------7---------------------------------------------------------
B|----5------7----9----------------5---------------------------------
G|------6------8----9----8-------6---6-------------------------------
D|-----------------------------6-------6-----------------------------
A|---------------------6-----4---------------------------------------
E|-------------------------------------------------------------------

and

e|--5------7---------------------------------------------------------
B|----5------7--------9-----7--------5-------------------------------
G|------6------8------9-----8------6---6-----------------------------
D|-------------------------------6-------6---------------------------
A|-----------------7----6------4-------------------------------------
E|-------------------------------------------------------------------

...alternate between the two...

+7 reply
Sutton 30 wrote on January 29 2005, 12:00 am

thats pretty nice man^

guest
You may want to rate the tab now too:
select rating
Please do not post tabs as comments. Select "correction" instead!