Oops, an error
Loading. Please wait.

Santeria Bass Tab

version 4
version 4
288,551 views 441 this week
13 commentsread comments
1 2 3 4 5
excellent!
x 84
add to favorites
launch autoscroll
font size
0
reset
guitar tuner
Tab Pro tools
  • play this tab
  • loop segment
  • change instrument
  • show fretboard
  • metronome
×
Best way to learn
"Santeria"
Autoscroll
slow
fast
+/-
esc
set tempo
stop
Contributor
----------------------------------PLEASE NOTE---------------------------------
This file is the author's own work and represents their interpretation of the
song. You may only use this file for private study, scholarship, or research.
------------------------------------------------------------------------------
Artist: Sublime
Song: Santeria
Album: Sublime


[Intro]

G|-----------------------8--------------|
D|---------6----------------------------|
A|--7-------------4----------------7h9--|
E|-----------------------7------7h9-----|


[Verse 1]

G|----------------------------------------------|
D|---------------7h9-7h9---6--6---6-6--0-6-6----|
A|--7--7---7-7-----------------6h8--------------|
E|------7h9-------------------------------------|

G|--------------------------------------------|
D|--------------------------------------------|
A|--4--4-4--4-4--4-4-------------------7h9----|
E|---------------------7--0-7-7-7--07h9-------|

G|---------------------------------------------|
D|---------------7h9-7h9---6--6----------------|
A|--7--7---7-7-----------------6-6--------4h6--|
E|------7h9------------------------4--04h6-----|

G|-------------------------------------------|
D|-------------------------------------------|
A|--4--4---4-4---0-4-7-----------------------|
E|------4h6------------7--0-7-7-7-7-7-7------|


[Chorus 1]

G|-----------------------------------|
D|-----------------------------------|
A|----7-7-----9-9---7-7-6-6--4-------|
E|--5-----0-7---------------4-4-4----|

G|-------------------------------------|
D|----------------------------6-6-6----|
A|----7-7------9-9---7-76-6-4----------|
E|--5------0-7-------------------------|

G|--------------------------------|
D|--------------------------------|
A|----7-7-----9-9---7-76-6--4-----|
E|--5-----0-7--------------4-4-4--|

G|-----------------|
D|-----------------|
A|----7-7-----9-9--|
E|--5-----0-7------|


[Verse 2]

G|--------------------------------------------|
D|---------------7h9-7h9---6--6---6-6--6---6--|
A|--7--7---7-7-----------------6h8------6h8---|
E|------7h9-----------------------------------|

G|---------------------------------------------|
D|------6-6------6-6---------------------------|
A|--4--4-----4--4----------9-9----------7h9----|
E|---------4--------4--7--7---7-7--0-7h9-------|

G|--------------------------------------------|
D|---------------7h9-7h9---6--6---6-6--6---6--|
A|--7--7---7-7-----------------6h8------6h8---|
E|------7h9-----------------------------------|

G|-----------------------------------------|
D|------6-6------6-6---9--0-9-9-9-9-9-9----|
A|--4--4-----4--4--------------------------|
E|---------4--------4----------------------|


[Chorus 1]

G|-----------------------------------|
D|-----------------------------------|
A|----7-7-----9-9---7-7-6-6--4-------|
E|--5-----0-7---------------4-4-4----|

G|-------------------------------------|
D|----------------------------6-6-6----|
A|----7-7-----9-9---7-7-6-6-4----------|
E|--5-----0-7--------------------------|

G|-----------------------------------|
D|-----------------------------------|
A|----7-7-----9-9---7-7-6-6--4-------|
E|--5-----0-7---------------4-4-4----|

G|-----------------|
D|-----------------|
A|----7-7-----9-9--|
E|--5-----0-7------|


[Verse 2]

G|--------------------------------------------|
D|---------------7h9-7h9---6--6---6-6--6---6--|
A|--7--7---7-7-----------------6h8------6h8---|
E|------7h9-----------------------------------|

G|--------------------------------------------|
D|------6-6------6-6--------------------------|
A|--4--4-----4--4----------9-9---------7h9----|
E|---------4--------4--7--7---7-7--07h9-------|

G|--------------------------------------------|
D|---------------7h9-7h9---6--6---6-6--6---6--|
A|--7--7---7-7-----------------6h8------6h8---|
E|------7h9-----------------------------------|

G|--------------------------------------------|
D|------6-6------6-6---9--0-9--9-9-9-9-9------|
A|--4--4-----4--4-----------------------------|
E|---------4--------4-------------------------|


[Chorus 1]

G|-----------------------------------|
D|-----------------------------------|
A|----7-7-----9-9---7-7-6-6--4-------|
E|--5-----0-7---------------4-4-4----|

G|-----------------------------------|
D|----------------------------6-6-6--|
A|----7-7-----9-9---7-7-6-6-4--------|
E|--5-----0-7------------------------|

G|---------------------------------|
D|---------------------------------|
A|----7-7-----9-9---7-7-6-6--4-----|
E|--5-----0-7---------------4-4-4--|

G|-----------------|
D|-----------------|
A|----7-7-----9-9--|
E|--5-----0-7------|


[Verse 2]

G|--------------------------------------------|
D|---------------7h9-7h9---6--6---6-6--6---6--|
A|--7--7---7-7-----------------6h8------6h8---|
E|------7h9-----------------------------------|

G|------------------------------------------|
D|------6-6------6-6------------------------|
A|--4--4-----4--4----------9-9---------7h9--|
E|---------4--------4--7--7---7-7--07h9-----|

G|--------------------------------------------|
D|---------------7h9-7h9---6--6---6-6--6---6--|
A|--7--7---7-7-----------------6h8------6h8---|
E|------7h9-----------------------------------|

G|---------------------------------------|
D|------6-6------6-6---9--0-9-9-9-9-9-9--|
A|--4--4-----4--4------------------------|
E|---------4--------4--------------------|


[Chorus 2]

G|---------------------------------|
D|---------------------------------|
A|----7-7-----9-9---7-7-6-6--4-----|
E|--5-----0-7---------------4-4-4--|

G|-----------------------------------|
D|----------------------------6-6-6--|
A|----7-7-----9-9---7-7-6-6-4--------|
E|--5-----0-7------------------------|

G|---------------------------------|
D|---------------------------------|
A|----7-7-----9-9---7-7-6-6--4-----|
E|--5-----0-7---------------4-4-4--|


[Outro]

G|--------------------------------|
D|--------------------------------|
A|--7---6---4---------------------|
E|--------------7----5----7----0--|

***********************************

h - Hammer on

***********************************
comments
print report bad tab
13 comments total. Showing first comments. show 1 bad comment
+1 reply
benttwig33 wrote on January 15 2007, 11:53 pm

awsome tab

+2 reply
Twizzle wrote on April 4 2008, 05:50 pm

Doh, sorry, was just a bit hard to follow, but i guess the solo is the Verse 2

I want to post or [tab]
guest
You may want to rate the tab now too:
select rating
Please do not post tabs as comments. Select "correction" instead!