Oops, an error
Loading. Please wait.

Smoke Two Joints Tab

version 1
version 1

Whole song

Interactive

168,186 views 126 this week
36 commentsread comments
1 2 3 4 5
accurate
x 32
add to favorites
launch autoscroll
font size
0
reset
how to read this tab
guitar tuner
Autoscroll
slow
fast
+/-
esc
set tempo
stop
Help us to improve Ultimate-Guitar.com Take our survey!
×
Author
Song: Smoke Two Joints
Artist: Sublime/ originally Bob Marley
Album: 40oz. of Freedom

This is directly out of the book.


[Intro]

e||-5--x-5-x-x--5--5--x-x-x--5--x--5--5--x-x-x--5--x-x-x--5---5--x-x-x--5--x-x-x-|
B||-5--x-5-x-x--5--6--x-x-x--6--x--6--5--x-x-x--5--x-x-x--5---6--x-x-x--6--x-x-x-|
G||-5----5-x-x--5--7--x-x-x--7--x--7--5--x-x-x--5--x-x-x--5---7--x-x-x--7--x-x-x-|
D||-------------------------------------------------------7\--7------------------|
A||-----------------------------------------------------------5------------------|
E||------------------------------------------------------------------------------|

e||-5--5--x-x-x--5--x-x--5--5--x-x-x--5--x-x---5--x--x-x-x--5--5--3/4-|
B||-6--5--x-x-x--5--x-x--5--6--x-x-x--6--x-x---6--x--x-x-x--5--5--3/4-|
G||-7--5--x-x-x--5--x-x--5--7--x-x-x--7--x-x---7--x--x-x-x--5--5--4/5-|
D||----7---------7-------7\-7---------7--------7--x---------7--7--5/6-|
A||-------------------------5---------5--------5----------------------|
E||-------------------------------------------------------------------|

  
[Intro/Solo]

e||----5-3------------------8-8-8-----7--8-7-5-------|
B||--------5-3/-------------------5-5----------------|
G||-7/----------5-2----------------------------------|
D||-----------------5/-3-----------------------------|
A||--------------------------------------------5-6-7-|
E||--------------------------------------------3-4-5-|


[Verse]

e||---5--5--5--3--1--1--3/4-----5--5--5--3--1--1--3/4-|
B||-4-5--5--5--4--1--1--3/4-----5--5--5--3--1--1--3/4-|
G||-4-5-----5--4--2--2--4/5-----5--5--5--4--2--2--4/5-|    X2
D||-4-------------------5/6--7--------------------5/6-|
A||---------------------------------------------------|
E||---------------------------------------------------|


[Interlude]

e||--------5--5--3--1--1------------------------------5-5--5--5--3--1-1--1-1--1-|
B||--------5--5--3--1--1------------------------------5-5--5--5--3--1-1--1-1--1-|
G||--------5--5--4--2--2--------------------5---------5-5-----5--4--2-2--2-2--2-|
D||-5-6-7-----------------5-6-7---------5-----7----7----------------------------|
A||-5-6-7-----------------5-6-7-----5-7---7-------------------------------------|
E||-3-4-5-----------------3-4-5-------------------------------------------------|

e||-3----5-5--5-5--5-5--3-3--1-1--1-1--1--3----5-5--5-5--5-5--3-3--1-1--1--3----|
B||-3----5-5--5-5--5-5--3-3--1-1--1-1--1--3----5-5--5-5--5-5--3-3--1-1--1--3----|
G||-4----5-5--5-5--5-5--4-4--2-2--2-2--2--4----5-5--5-5--5-5--4-4--2-2--2--4----|
D||-5/7-----------------------------------5/7------------------------------5/7--|
A||-----------------------------------------------------------------------------|
E||-----------------------------------------------------------------------------|

e||-5-5--5-5--5-5--3-3--1-1--1--3\---|
B||-5-5--5-5--5-5--3-3--1-1--1--3\---|
G||-5-5--5-5--5-5--4-4--2-2--2--4\---|
D||-----------------------------5\---|
A||----------------------------------|
E||----------------------------------|


[Verse 2]

e||-5--5---5--3--1--1--1--1/3--5--5--5--5--1--1----1-1--|
B||-5--5---5--3--1--1--1--1/3--5--5--5--5--1--1-0--1-1--|
G||-5--5---5--4--2--2--2--2/4--5--5--5--5--2--2----2-2--|
D||-----------------------------------------------------|
A||-----------------------------------------------------|
E||-----------------------------------------------------|


[Bridge]

e||-3--3--3--3--1--1--1--1--3--3--3--3--1--1--1--1--8-8-8-----7--8-7-5------|
B||-3--3--3--3--1--1--1--1--3--3--3--3--1--1--1--1--------5-5---------------|
G||-4--4--4--4--2--2--2--2--4--4--4--4--2--2--2--2---------------------7/7--|
D||-------------------3--3--------------------3--3--------------------------|
A||-------------------3--3--------------------3--3--------------------------|
E||-------------------------------------------------------------------------|

e||-8-8-8-----7--8-7-5--------------------------------------------------------|
B||-------5-5-----------------------------------------------------------------|
G||--------------------7/7/7----------------------------------------5/7-7-7-7-|
D||---------------------------5-5--5/7-7-7-7--5/7-7-7-7--5/7-7-7-7--5/7-7-7-7-|
A||---------------------------5-5--5/7-7-7-7--5/7-7-7-7--5/7-7-7-7--3/5-5-5-5-|
E||---------------------------3-3--3/5-5-5-5--3/5-5-5-5--3/5-5-5-5------------|

e||----------------------5--5--5--3--1--1--3--|
B||----------------------5--5--5--3--1--1--3--|
G||-5/7----------5-------5--5--5--4--2--2--4--|
D||-5/7------5-----7--7-----------------------|
A||-3/5--5/7---7------------------------------|
E||-------------------------------------------|


[Interlude 2]

e||-------------------|
B||-------------------|
G||----------------2--|
D||------------2------|
A||------------x------|
E||-0-----------------|


[Outro]

e||-5--x-x--5--x-x--5--x--5--x-x--5--x-x--5-----5--x-x--5--x-x--5-----|
B||-5--x-x--5--x-x--5--x--6--x-x--6--x-x--6-----5--x-x--5--x-x--5-----|
G||-5--x-x--5--x-x--5--x--7--x-x--7--x-x--7--5--5--x-x--5--x-x--5--5--|
D||----------------------------------------------------------------7--|
A||-------------------------------------------------------------------|
E||-------------------------------------------------------------------|

e||-5--x-x--5--x-x--5-----5--x-x--5--x-x--5--5--5--x-x--5--5--5--x-x--5--x-x--|
B||-6--x-x--6--x-x--6-----5--x-x--5--x-x--5--5--6--x-x--6--6--5--x-x--5--x-x--|
G||-7--x-x--7--x-x--7--5--5--x-x--5--x-x--5--5--7--x-x--7--7--5--x-x--5--x-x--|
D||---------------------------------------------------------------------------|
A||---------------------------------------------------------------------------|
E||---------------------------------------------------------------------------|

e||-5--3---|
B||-6--3---|
G||-7--4---|
D||--------|
A||--------|
E||--------|

FREE TIME!


[Ending]

e||-------|
B||-------|
G||-------|
D||-6--7/-|
A||-6--7/-|
E||-4--5/-|



************************************

| x  Dead note
| /  Slide up
| \  Slide down

************************************
Suggest correction
comments
print report bad tab
36 comments total. Showing first comments. show 1 bad comment
+1 reply
choking_victim 10 wrote on April 21 2004, 12:00 am

it twasnt by bob marly you stupid idiot

+5 reply
Rasta-Kid 15 wrote on May 14 2004, 12:00 am

This song is NOT by Bob Marley bro. I'll give you a dollar if you can find his version.

guest
You may want to rate the tab now too:
select rating
Please do not post tabs as comments. Select "correction" instead!