Oops, an error
Loading. Please wait.

Sublime Bass Tab

19,638 views 6 this week
1 commentread comment
1 2 3 4 5
accurate
x 4
add to favorites
launch autoscroll
font size
0
reset
guitar tuner
Autoscroll
slow
fast
+/-
esc
set tempo
stop
Help us to improve Ultimate-Guitar.com Take our survey!
×
Difficulty
intermediate
Ok, i put the best bass tabs on here into a ALBUM tab. So i gave them credit. The
ones without a name in the tab or a username in the tab cant be credited. Cause i
dont know there name. But good luck at learning this

Sublime
Title: Garden Grove
Self titled
Comments:Geenyuss@aol.com

The other guy was close, but i think this is the real deal...
Intro:
:-------------------------------------------:
:---5h7\\2--------------5-7-----------------:its kinda fast...
:-7--------0-3-4-0----7---------------------:
:-------------------------------------------:

Verse:
:-------------------------------------------:
:---------5-7-------------------------------:
:-------7-----------------------------------:
:--55x5-------------------------------------:

Bridge:
:-------------------------------------------:
:-------------------5-7---------------------:x4
:-------------------------------------------:
:--5-555-555-555-55-------------------------:

Fill:
:-------------------------------------------:
:-------------------------------------------:
:-------4-5----2-5-2-----4-5-----2-5-2------:
:--5---3---5--3-----5---3---5--3------------:

Bridge:
:-------------------------------------------:
:-------------------5-7---------------------:x4
:-------------------------------------------:
:--5-555-555-555-55-------------------------:

Verse:
:-------------------------------------------:
:---------5-7-------------------------------:
:-------7-----------------------------------:
:--55x5-------------------------------------:

What I Got-Sublime by Mike
petermik@vianet.on.ca


G:-----------------!-------------------!--------------------------|
D:--------5H7------!-------5H7---------!--------------------------|
A:--5-5-5-------0H3!-5-5-5---------0H3-!--------------------------|
E:------------3----!-----------3-3-----!--------------------------|

H=hammer on

That's basically it...
Wrong Way – by GDawg

 intro
G----------------------------------|
D----------------------------------|
A-----------5----5-5------------5--|
E-0----0-0------------0----0-0-----|

verse riff 1 3x
G-----------------|-----------------|
D---------5-5-6-7-|---------3-3-4-5-|
A-----7-7---------|-----5-5---------|
E-5-5-------------|-3-3-------------|

change 1
G-----------------|-----------------|
D---------5-5-6-7-|---------7-7-8-9-|
A-----7-7---------|-----9-9---------|
E-5-5-------------|-7-7-------------|

chorus
G---------------|-----------|---------------|-----------|
D-----11-11-----|-----8h9---|-----11-11-----|-----9-9---|
A-9-9-----------|-7-7-------|-9-9-----------|-7-7-------|
E-----------9-9-|---------7-|-----------9-9-|---------7-|

G---------------|
D-----11-11-----|
A-9-9-----------|
E-----------9-9-|

G-------------|-----------|-------------|
D-----9-9-----|-----7-7---|-----9-9-----|
A-7-7---------|-9-9-------|-7-7---------|
E---------7-7-|---------9-|---------7-0-|

verse riff 2a 1x
G---------------|-----------------|
D-------7-7-8-9-|---------5-5-6-7-|
A---9-9---------|-----7-7---------|
E-7-------------|-5-5-------------|

verse riff 2b 2x
G-----------------|-----------------|
D---------7-7-8-9-|---------5-5-6-7-|
A-----9-9---------|-----7-7---------|
E-7-7-------------|-5-5-------------|

change 2
G-----------------|---------------------|
D---------7-7-8-9-|-----------9-9-10-11-|
A-----9-9---------|-----11-11-----------|
E-7-7-------------|-9-9-----------------|

chorus 2
G-------------|-------------|-----------|-----------|-------------|
D-----9-9-----|-----7-7-----|-----8h9---|-----7-7---|-----9-9-----|
A-7-7---------|-5-5---------|-7-7-------|-5-5-------|-7-7---------|
E---------7-7-|---------5-5-|---------7-|---------5-|---------7-7-|

G-------------|-----------|-------------|
D-----7-7-----|-----9-9---|-----5-5-5---|
A-5-5---------|-7-7-------|-5-5---------|
E---------5-5-|---------7-|-----------0-|

verse riff 1
change 1

chorus 3(w/trumpet)
G-----------------|---------------|---------------|-------------|
D-----10h11-10h11-|-----7h9-7h9---|-----9h11-9h11-|-----9-9-----|
A-9-9-------------|-7-7-----------|-9-9-----------|-7-7---------|
E-----------------|---------------|---------------|---------7-7-|

G---------------|---------------|---------------|
D-----9h11-9h11-|-----9h11-9h11-|---11-11-11-11-|
A-9-9-----------|-7-7-----------|-9-------------|
E---------------|---------------|---------------|

G---11----13----14----13-|
D------------------------|
A-9----11----12----11----|
E------------------------|

verse riff 2a
verse riff 2b
change 2

chorus 4
G--------------|-----------|-------------|-------------|
D------9-9-----|-----7-7---|-----9-9-----|-----7-7-----|
A-77-7---------|-5-5-------|-7-7---------|-5-5---------|
E----------7-7-|---------5-|---------7-7-|---------5-5-|

G-------------|-------------|-----------|------------|
D-----9-9-----|-----7-7-----|-----9-9---|-----7-7----|
A-7-7---------|-5-5---------|-7-7-------|-5-5--------|
E---------7-7-|---------5-5-|---------7-|---------5/-|

verse riff 2b 3x

ending         slow down
G-----------------|------------|
D---------7-7-8-9-|------------|
A-----9-9---------|------------|
E-7-7-------------|-10-0-10-10-|


Song: Same in the End
Band: Sublime
Album: Sublime
Tabbed by: Nick Wayser (sublimebpp@hotmail.com)


Verse
Theres a million variations, pretty simple to figure out, try 'em
 |---------------------------------------------------------------|
 |--------------------7------------------------------------------|
 |-5-0h5-5-0h55-5-0h5--------------------------------------------|
 |---------------------------------------------------------------|

Chorus
 |---------------------------------------------------------------|
 |---------------------------------------------------------------|
 |-------33333-------555-333-------88888-------------------------|
 |-11111-------55555---------66666-------55555-55555-------------|

Pre-Verse
 |---------------------------------------------------------------|
 |---------------------------------------------------------------|
 |-5-5-5-x-3-3-3-x-8-8-8-x-5-5-5---------------------------------|
 |---------------------------------------------------------------|

Verse
 |---------------------------------------------------------------|
 |--------------------7------------------------------------------|
 |-5-0h5-5-0h55-5-0h5--------------------------------------------|
 |---------------------------------------------------------------|

Chorus
 |---------------------------------------------------------------|
 |---------------------------------------------------------------|
 |-------33333-------555-333-------88888-------------------------|
 |-11111-------55555---------66666-------55555-55555-------------|

Pre-Verse
 |---------------------------------------------------------------|
 |---------------------------------------------------------------|
 |-5-5-5-x-3-3-3-x-8-8-8-x-5-5-5---------------------------------|
 |---------------------------------------------------------------|

Verse
 |---------------------------------------------------------------|
 |--------------------7------------------------------------------|
 |-5-0h5-5-0h55-5-0h5--------------------------------------------|
 |---------------------------------------------------------------|

Chorus
 |---------------------------------------------------------------|
 |---------------------------------------------------------------|
 |-------33333-------555-333-------88888-------------------------|
 |-11111-------55555---------66666-------55555-55555-------------|

Pre-verse
 |---------------------------------------------------------------|
 |---------------------------------------------------------------|
 |-5-5-5-x-3-3-3-x-8-8-8-x-5-5-5---------------------------------|
 |---------------------------------------------------------------|

 Outro
 |---------------------------------------------------------------|
 |----------------3333333333333333-5555555555555555-7-7-5--------|
 |5555555555555555----------------------------------------8-8-7-5|
 |---------------------------------------------------------------|


Intro: April 29, 1992 (unregistered)

G------------------------------------------------|
D------------------------------------------------|
A-5-5---5--3-3-----3--5-5---5-----------3-3-3-3--|
E-----5--------3-5--------5----1-1-1-1-----------|

Verse:

G------------------------------------------------|
D----------------------------------------------5-|
A------------------------------------------------|
E-5-5-5-5-5-5-5-5-5-5-O-5--5-5-5-5-5-5-5-5-5-5---|

G------------------------------------------------|
D----------------------------------------------5-|
A-5-5-5-5-5-5-5-5-5-5-O-5--5-5-5-5-5-5-5-5-5-5---|
E------------------------------------------------|

G------------------------------------------------|
D---------------------5------------------------5-|
A------------------------------------------------|
E-5-5-5-5-5-5-5-5-5-5---5--5-5-5-5-5-5-5-5-5-5---|

G------------------------------------------------|
D----------------------------------------------5-|
A-5-5-5-5-5-5-5-5-5-5-O-5--5-5-5-5-5-5-5-5-5-5---|
E------------------------------------------------|

Bridge:

G------------------------------------------------|
D------------------------------------------------|
A-O-O-3-5--O-O-O-O-3-5--O-O-3-5--O-O-O-O-3-5-----|
E------------------------------------------------|

Outro:

G------------------------------------------------|
D------------------------------------------------|
A-5---4-3-3-----3------5-------------3-3-3-3-----|
E---5-------3-5----5-5---5--1-1-1-1--------------|


Artist: Sublime
Song: Santeria
Album: Sublime   by rriterson
Intro:
G|-----------------------8--------------|
D|---------6----------------------------|
A|--7-------------4----------------7h9--|
E|-----------------------7------7h9-----|

Verse 1:
G|-------------------------------------------|
D|---------------7h9-7h9---6--6---6-6--06-6--|
A|--7--7---7-7-----------------6h8-----------|
E|------7h9----------------------------------|

G|---------------------------------------|
D|---------------------------------------|
A|--4--44-4-4--4-4------------------7h9--|
E|-------------------7--07-7-7--07h9-----|

G|---------------------------------------------|
D|---------------7h9-7h9---6--6----------------|
A|--7--7---7-7-----------------6-6--------4h6--|
E|------7h9------------------------4--04h6-----|

G|---------------------------------------|
D|---------------------------------------|
A|--4--4---4-4---047---------------------|
E|------4h6-----------7--07-7-7-7-7-7----|

Chorus 1:
G|--------------------------------|
D|--------------------------------|
A|----7-7-----9-9---7-76-6--4-----|
E|--5------07--------------4-4-4--|

G|----------------------------------|
D|---------------------------6-6-6--|
A|----7-7-----9-9---7-76-6-4--------|
E|--5------07-----------------------|

G|--------------------------------|
D|--------------------------------|
A|----7-7-----9-9---7-76-6--4-----|
E|--5------07--------------4-4-4--|

G|-----------------|
D|-----------------|
A|----7-7-----9-9--|
E|--5------07------|

Verse 2:
G|--------------------------------------------|
D|---------------7h9-7h9---6--6---6-6--6---6--|
A|--7--7---7-7-----------------6h8------6h8---|
E|------7h9-----------------------------------|

G|---------------------------------------|
D|------66------66-----------------------|
A|--4--4----4--4---------99---------7h9--|
E|--------4-------4--7--7--7-7--07h9-----|

G|--------------------------------------------|
D|---------------7h9-7h9---6--6---6-6--6---6--|
A|--7--7---7-7-----------------6h8------6h8---|
E|------7h9-----------------------------------|

G|------------------------------------|
D|------66------66---9--09-9-9-9-9-9--|
A|--4--4----4--4----------------------|
E|--------4-------4-------------------|

Chorus 1

Verse 2

Chorus 1

Verse 2

Chorus 2:
G|--------------------------------|
D|--------------------------------|
A|----7-7-----9-9---7-76-6--4-----|
E|--5------07--------------4-4-4--|

G|----------------------------------|
D|---------------------------6-6-6--|
A|----7-7-----9-9---7-76-6-4--------|
E|--5------07-----------------------|

G|--------------------------------|
D|--------------------------------|
A|----7-7-----9-9---7-76-6--4-----|
E|--5------07--------------4-4-4--|

Outro:
G|-------------------------------------------------|
D|-------------------------------------------------|
A|--7---6---4--------------------------------------|
E|--------------------7----5----7----0-------------|

Band: Sublime
Song: Seed
Album: Sublime
Tabbed by: Jason Davis

Okay, here we go.  First, all the notes are there, I just did not tab out the
exact number of notes to play when the music is going fast because it would be a
waste of time to sit there and count them all.  As with all Sublime songs, just
listen very close to get the rythm and timing down, especially on the outro.
Also the X on the tab means fret 10.  This song is a lot of fun to play and sing
along.


Intro (PART A)
G:--------------------------------------|
D:--------------------------------------|
A:--------------------------------------|
E:-5555555-3-1111111-3333333------------|

Verse (PART B)
Play the first half slow, and haul ass on the second!
G:-------------------|--------------------------|
D:-------------------|----------------3-5-------|
A:-3---33-2-0-0------|--5-----5---3-------3-----|
E:---3----------3-1--|----5h7---3---5-----------|

Fast Part (PART C)
G:----------------------------|
D:----------------------------|
A:-3-------5-----3h5----------|
E:---5-3-1---3-5--------------|

Rock Part (PART D)
G:----------|---------------------|
D:----------|---------------------|
A:-3---5----|----------1----------|
E:---5---3--|--1-3-1-3---1-5------|

Verse 2 (PART E)
Play the whole thing slow this time.
G:-------------------------------------------------------------|
D:-------------------------------------------------------------|
A:-3---3-2-0-0-----5-5-----5---3-3-3-3-0-0-----5-5-----5-------|
E:---3---------3-1-----5h7---3-------------3-1-----5h7---3-----|

Guitar Solo (PART F) Im not 100% sure about this, but it is close.
G:---------5---5-----------------------|
D:-7-3---3---3---3-7/x-9-3-6-5-3-------|
A:-----3-------------------------3-----|
E:-------------------------------------|

Outro (PART G)
Basically a long variation of the verse. Play first part slow, second part fast.
G:------------------|-----------------------------------------------------|
D:------------------|-----------------------------------------------------|
A:-3---3-3-0-0------|-5-----5---5---3--2-0-------0-3-2-0---3---3---5------|
E:---3---------3-1--|---5h7---3---3---3----3-1-3---------1---1---3---5/x\-|

Outro (cont.)
G:-----------------------------|
D:-----------------------------|
A:-3-0-5---3-0---------1-------|
E:-------3-----1-3-1-3---1-5---|
Eric also does some hammer on stuff there at the end.

Song Structure
PART A
PART B
PART A
PART E
PART C
PART D
PART F
PART A
PART G


Song: Jailhouse
Artist: Sublime
Album: Sublime
Tabbed by: Dave Miller (dave@basstabarchive.com)
http://www.basstabarchive.com/

Part I (Verse)

G|---------------------------------------------------|
D|*-----------------5h7------------------7h9-7h9-----|
A|*---5-5----5-5--5--------7-7----7-7--7-------------|
E|---------5------------5-------7--------------------|


Part II

G|-------------------------------------------------------------|
D|*------------------------------------------------------------|
A|*-------5-5-5-5-------5-5-5-5--------7-7-7-7-------7-7-7-7---|
E|--3h5-5---------3h5-5----------5h7-7---------5h7-7-----------|


Part III

G|--------------------------------------|
D|*--------------------------7h9-7h9----|
A|*---5-5------7-7----7-7--7------------|
E|------------------7-------------------|


Part IV

G|-------------------------------------------------------|
D|*------------------------------------------------------|
A|*--5--5-5--5--5-5--------------------------------------|
E|------------------7--5--4--0--0-0--0--0-0--2--4--7-----|


End

G|----------------|
D|*---------------|
A|*--5-5----------|
E|----------------|
    "can't fight against the youth"


Structure:

Part I x 10
Part II x 8
Part I x 4
Part III x 1
Part I x 3
Part III x 1
Part I x 5
Part II x 4
Part IV x 8
Part I x 2
End

PAWN SHOP by BucketheadRules

Main Riff: (9/10ths of the song)
G|------------------|
D|----55---55-------|
A|-5h7--5h7--75--5--|
E|-------------7----|

Ending: (after Bradley says "Sing!")
G|----------------------------|
D|----------------------------|
A|-5h7--7775-----5-5h777775---|
E|----------7--7-----------7--|

The Ballad of Johnny Butt
Sublime
Tabbed by Pablo Vadillo

**********************
Tablature Explanation
b-bend
/-slide
**********************

Drums intro
Verse
G.-------------------------------------------------|
D.-------------------------------------------------|
A.----6b7-0--------=6b7-0---7/8-8----8-8-7b--2b3b2-|
E.5-------------5-5--------------------------------|

G.--------------------------------------------------|
D.-------------------------------------------9b10-9-|
A.----6b7-0--------=6b7-0---7/8-8----8-8-7b---------|
E.5-------------5-5---------------------------------|

Chorus("we've got.."')
G.----------------------------------|
D.-----5b7-7-5----------------------|
A.---7---------7-8-8-0-8-8-8/1------|
E.5----------------------------1/5--|

Ending
G.--
D.-7
A.-7 let ring...
E.-5


Burritos: By Sublime
transcribed by Scott Peterson (skpeters@ucsd.edu)
Bassist: Eric Wilson (God of Thunder)

riff 1:
D        F       A#              D       F       C
-------------------------------------------------------------------|
-------------------------------------------------------------------|
-5-5-5-5-8-8-8-8-----------------5-5-5-5-8-8-8-8-----10-10-7-7-----|
-----------------6-6-6-6-6-6-6-6-----------------8-8-----------8-8-|
D        F       A#              D       F        A#   D#
-------------------------------------------------------------------|
-------------------------------------------------------------------|
-5-5-5-5-8-8-8-8-----------------5-5-5-5-8-8-8-8-------6-6---------|
-----------------6-6-6-6-6-6-6-6------------------6-6--------------|

riff 2:
G            A#  A
-------------------------------------------------------------------|
-------------------------------------------------------------------|
----------------------(7-7-7-7)-----------------------(7-7-7-7)----|
---3-3-3-3-3-6-6-5-5-5-5-5-5-5-5-3-3-3-3-3-3-6-6-5-5-5-5-5-5-5-5---|

riff 3:
-------------------------------------------------------------------|
-------------------------------------------------------------------|
-5-5-5-5-8-8-8-8-----------------5-5-5-5-8-8-8-8-------6-6---------|
-----------------6-6-6-6-6-6-6-6------------------6-6--------------|

-------------------------------------------------------------------|
-------------------------------------------------------------------|
-5-5-5-5-8-8-8-8---------6-6-6-6-5-5-5-5-8-8-8-8---------6-6-6-6---|
-----------------6-6-6-6-------------------------6-6-6-6-----------|

riff 4:
A             D
-------------------------------------------------------------------|
----------------4-7---4-7-----------------4-7---4-7----------------|
---4-7---4-7--5-----5--------4-7---4-7--5-----5--------4-7---4-7---|
-5-----5-------------------5-----5-------------------5-----5-------|

-------------------------------------------------------------------|
---4-7---4-7-------------------------------------------------------|
-5-----5---------4-7---4-7--5-5--4-4-------------------------------|
---------------5-----5---------------------------------------------|

ending: (repeat for a while)
-----5h7-5h7--5---------|
-----------------7-5-3--|
-5--5-------------------|
------------------------|

riff1
riff2
riff3
riff4
riff1
riff2
riff3
riff4 X 2
riff1
riff2
riff3
riff4 X 2
riff1
riff2
riff3
riff4 X 2
ending


Song: Under My Voodoo
Band: Sublime
Album: Selt Titled
Tabbed by: Rob MacGuffie (SubDubLBC@aol.com)
Tuning: Standard
Visit My Sublime Bass Tab Site: http:\\subdublbc.tripod.com


 Main Verse: Play 32x
 |--------------|
 |-------5------|
 |-5h7-x----7-7-|
 |--------------|

 Then: Chorus
 |-------------------------------------|
 |--5-5-5-5-5-5-5-5--4-4-4-4--3-3-3-3--|
 |-------------------------------------|
 |-------------------------------------|

 Main Verse: Play 4x
 |--------------|
 |-------5------|
 |-5h7-x----7-7-|
 |--------------|

 Then
 |-------------------------------|
 |--5-5-5-5-5-5-5-5--7-7-7-7--9--|
 |-------------------------------|
 |-------------------------------|


 Then

 Main Verse: Play 4x
 |--------------|
 |-------5------|
 |-5h7-x----7-7-|
 |--------------|

 Then: Chorus
 |-------------------------------------|
 |--5-5-5-5-5-5-5-5--4-4-4-4--3-3-3-3--|
 |-------------------------------------|
 |-------------------------------------|

 Main Verse: Play 4x
 |--------------|
 |-------5------|
 |-5h7-x----7-7-|
 |--------------|

 Then
 |-------------------------------|
 |--5-5-5-5-5-5-5-5--7-7-7-7--9--|
 |-------------------------------|
 |-------------------------------|


 Main Verse: Play 20x
 |--------------|
 |-------5------|
 |-5h7-x----7-7-|
 |--------------|

 Then: Chorus
 |-------------------------------------|
 |--5-5-5-5-5-5-5-5--4-4-4-4--3-3-3-3--|
 |-------------------------------------|
 |-------------------------------------|

 Main Verse: Play 4x
 |--------------|
 |-------5------|
 |-5h7-x----7-7-|
 |--------------|


 Then: This is the False Ending part.
 |-------------------------------------|
 |--5-5-5-5-5-5-5-5--7-7-7-7--9--------|
 |----------------------------------(7)|
 |-------------------------------------|


 Main Verse: Play 26x, progresively slow the tempo down.
 |--------------|
 |-------5------|
 |-5h7-x----7-7-|
 |--------------|

 After the 26th time of playing the verse, play this.
 |-----|
 |-----|
 |-(7)-|
 |-----|


Song: Get Ready
Band: Sublime
Album: Self Titled
Tabbed by: Rob MacGuffie (SubDubLBC@aol.com)
Tuning: Standard
Visit My Sublime Bass Tab Site: http:\\subdublbc.tripod.com

 First Part
 |---------------------|
 |---------------------|
 |---------------------|
 |-5h7-5-5-5-5-5-x-5-5-|

 Then:
 |------------|
 |------------|
 |------2-2-0-|
 |-2--2-------|

 Next:
 |------------|
 |------------|
 |------2-2---|
 |-0--0-----2-|

 Then, near the end is this part:
 |--------------------------|
 |--------------------------|
 |--------------------------|
 |-5-5-5-5-5-5--5-5-5-5-7-5-|

Caress ME Down by ericbrumet


Intro
G-----------------------------------------|
D-----------------------------------------|
A--------------------------------5-4------| Do that 3 times
E---4h5-5-5---4h5-5-5---4h5-5-5-----------|


Bridge
G----------------------------------|
D----------------------------------|
A----------5------------7----------|
E---5-5-5----5---5-5-5-----5-------|


Verse/Chorus
G---------------------------------|
D---------------------------------|
A--------5-5----------7-7---------|
E---5-5------5---5-5------5-------|


Sublime: By Zach Boy
Doin’ Time

Verse:

G|----------------------|
D|----------------------|
A|-----------5---3-6-5--|
E|-3-3-3-3-6---6------6-|

Chorus:
G|---------------------------------|
D|----5-5-------5-5----6-3---6-5---|
A|-3-3----3-3-7------------5-----5-|
E|-----------------5---------------|
Suggest correction
What's this?
You can suggest a correction to this tab. Community and Mods will review your correction and vote to approve or reject it.
comments
print report bad tab
1 comment total.
0 reply
Pool_Shark 259 wrote on August 2 2009, 10:29 pm

Get Ready isn't right at all, Doin' Time might be off, but the other tabs look and sound good to me.

I'm glad someone put this together, saves me form having to search for every song.

guest
You may want to rate the tab now too:
select rating
Please do not post tabs as comments. Select "correction" instead!