Oops, an error
Loading. Please wait.

Were Only Gonna Die Tab

version 1
version 1

Whole song

by Sublime
26,023 views 15 this week
4 commentsread comments
1 2 3 4 5
x 7
add to favorites
launch autoscroll
font size
0
reset
how to read this tab
guitar tuner
×
Best way to learn
"Were Only Gonna Die"
Autoscroll
slow
fast
+/-
esc
set tempo
stop
[Intro]
e|------------------------------------------------------------------------------|
B|--------------------------------------------5-----8-7-------------------------|
G|--------------------------------------------7b--9-----9----9b-7h9p7-6---------|
D|------------------------------------------------------------------------------|
A|-12--12-12-12-10--10-10-10-9--9-9-9-7--5/7------------------------------------|
E|------------------------------------------------------------------------------|

e|----------------------------12--15b---15-17-17b-15-17-15-14-15-14-------------|
B|-------------5----15-15-15b---------------------------------------15----------|
G|-7-5-7-7-5-7-7b------------------------------------------------------14-------|
D|------------------------------------------------------------------------------|
A|------------------------------------------------------------------------------|
E|------------------------------------------------------------------------------|

e|------------------------------------------------------------------------------|
B|------------------------------------------------------------------------------|
G|-14--12-12-11h12p11h12h14-14-14-14-12--12-12-12-11--11-11-11-9--9-9-9-7--7-7--|
D|------------------------------------------------------------------------------|
A|------------------------------------------------------------------------------|
E|------------------------------------------------------------------------------|

e|-----------|-----------------------------|
B|-----------|-----------------------------|
G|-7-7\6-2---|-----------------------------|
D|-------2---|-----------------------------|
A|-------0---|-----------------------------|
E|-----------|-----------------------------|

[Verse] 
(clean ska A G D A)
e|------------------------------------------------------------------------------|
B|--------------------------------------------------------8-7---8-7-------------|
G|------------------------------------------------------------9-----9-7-9-7b----|
D|---4/5-5-5--5/7-7-7--7/9-9-9--9/11-11-11-11\9-9-9-9\7-7-----------------------|
A|------------------------------------------------------------------------------|
E|------------------------------------------------------------------------------|

e|---------14--14--12--12--14--12--12--14--12--12--14--12--12--15--15--15--15---|
B|---------15--15--14--14--15--14--14--15--14--14--15--14--14--15--15--15--15---|
G|-7-9-9b-----------------------------------------------------------------------|
D|------------------------------------------------------------------------------|
A|------------------------------------------------------------------------------|
E|------------------------------------------------------------------------------|

e|-15--15--15--15-----------------------------------------------------12-15-14--|
B|-15--15--15--15--15-14-14-12-10-12-10-----------------------------------------|
G|---------------------------------------14b-14-12-14b-12-14-12-12b-------------|
D|------------------------------------------------------------------------------|
A|------------------------------------------------------------------------------|
E|------------------------------------------------------------------------------|

e|-12-12-15-12-12-12-15-12-15b--12-15-15b|--------------------------------|
B|---------------------------------------|--------------------------------|
G|---------------------------------------|--------------------------------|
D|---------------------------------------|--------------------------------|
A|---------------------------------------|--------------------------------|
E|---------------------------------------|--------------------------------|
                                       then verse w/distortion AG DA

[Break] 
(Distortion)
e|------------------------------------------------------------------------------|
B|------------------------------------------------------------------------------|
G|------------------------x-7---------------------------------------------------|
D|--5/7-7-7--5/7-7-7--5/7-x-7---------------------------------------------------|
A|--5/7-7-7--5/7-7-7--5/7-x-5---------------------------------------------------|
E|--3/5-5-5--3/5-5-5--3/5-------------------------------------------------------|


************************************

| h  Hammer-on
| p  Pull-off
| b  Bend
| /  Slide up
| \  Slide down
| x  Dead note

************************************
Suggest correction
comments
print report bad tab
4 comments total. Showing first comments.
+1 reply
Surf3r 10 Sep 22, 2005 04:06 PM

I'm so glad that there is more sublime songs


Sublime
L.B.C

0 reply
SublimeMac 10 Nov 01, 2010 12:02 PM

great job but it sounds cleaner starting on the D string on the 7th fret, but i'm happy you're posting sublime songs.

R.I.P. Brad

0 reply
TMoreau15 30 Aug 16, 2015 04:57 PM

Comment every 5 years.... MORE SUBLIME! .... you know, cause my ear is terrible.

guest
You may want to rate the tab now too:
select rating
Wanna post a correction for this tab? Suggest correction