Oops, an error
Loading. Please wait.
We have Chord Pro version of What I Got.
It's the closest thing you can get to the original song and it has interactive parts. Check out the tab »
×
by Sublime
13,848 views 6 this week
2 commentsread comments
1 2 3 4 5
x 11
add to favorites
×
Save as Personal and add changes to this tab that will be seen only by you. Learn more ›
×
You can save this tab as Personal to edit and correct it or add notes. All changes will be seen only by you. Learn more »
launch autoscroll
font size
0
reset
how to read this tab
guitar tuner
backing track
0:00
0:00
edit
Autoscroll
slow
fast
+/-
esc
set tempo
stop
Sublime What I Got Solo.
Tabbed by Hefty Baggs mikej7_2000@hotmail.com.
  
ARTIST: Sublime
SONG: What I Got (Solo)
ALBUM: Sublime
TAB BY: Hefty Baggs
-------------------------------------------------

========================
KEY:
~ = Full Bend
10h12 = 10 hammer on 12
12p10 = 12 pull of to 10
=========================

Solo:
|----------------------|-------------12--------------------|
|------6~--------7-5-3-|-------10h12----12p10-13-12-10-----|
|--5-7----7-5-7--7-5-4-|-11h12-------------------------11~-|
|7---------------------|-----------------------------------|
|----------------------|-----------------------------------|
|----------------------|-----------------------------------|
 
:: Ultimate Guitar Archive :: 
http://www.ultimate-guitar.com 


            
            
Suggest correction
Creating personal tab
Creating personal tab
You can edit any tab online and save it as your Personal.

You can edit, replace or remove any tab part or add personal notes – all changes will be seen only by you.

Personal tabs can be accessed anytime from any device, even offline.
Learn more »
comments
print report bad tab
2 comments total.
0 reply
zapp 10 Nov 07, 2001 07:00 PM

i think the last part of the solo sounds better like this:
e|-------7-10-7-7---8-7
B|7-8-10---------10-----10-10

0 reply
O.G.ollie 10 Mar 03, 2002 07:00 PM

everythings cool except the last note should be on the 12th fret not 11th

guest
Wanna post a correction for this tab? Suggest correction