Oops, an error
Loading. Please wait.
We have Chord Pro version of What I Got.
It's the closest thing you can get to the original song and it has interactive parts. Check out the tab »
×
by Sublime
79,137 views 3 this week
5 commentsread comments
1 2 3 4 5
x 7
add to favorites
×
Save as Personal and add changes to this tab that will be seen only by you. Learn more ›
×
You can save this tab as Personal to edit and correct it or add notes. All changes will be seen only by you. Learn more »
launch autoscroll
font size
0
reset
how to read this tab
guitar tuner
backing track
0:00
0:00
edit
Autoscroll
slow
fast
+/-
esc
set tempo
stop
Difficulty
intermediate
Artist:		Sublime
Song:		What I Got (Reprise)
Tabbed By:	Chris
Email:		nocturne81@hotmail.com
Date:		February 8th, 2006


Here's a tab for the song with ALL the solos.
I had no luck finding a tab with all the guitar
solos so I just figured it out myself.


Intro/Verse/Chorus:  D		G		(Repeat)

Chorus Solo:
e-----------------------------------------------------------|
B-------6~-------------7--5--4-4----------------------------|
G---5-7-----7-5-7------7--5--3-3----------------------------|
D-/7--------------------------------------------------------|
A-----------------------------------------------------------|
E-----------------------------------------------------------|

e-------------10--------------------------------------------|
B-------10h12----12-12-10-13-12-10--------------------------|
G-11h12----------------------------12^^^13------------------|
D-----------------------------------------------------------|
A-----------------------------------------------------------|
E-----------------------------------------------------------|


Come in right after the after the chorus with only
claps.

Accoustic Part:
e-----------------------------------------------------------|
B---7---7----7----7-----7~~-7^8^7~~--7^8^7~~----------------|
G-----7----7----7----7-----------------------9-9-7----------|
D------7----7----7----7-------------------------------------|
A-----------------------------------------------------------|
E-----------------------------------------------------------|

e-----------------------------------------------------------|
B------------------------7----7---7~~~----------------------|
G---7---5-5----------------7---7----------------------------|
D-----------9-7~~--7-9-7----7---7---------------------------|
A-----------------------------------------------------------|
E-----------------------------------------------------------|

Distorted Part:
e-------------------------------------8---7-7--5------------|
B--------------------------------------------------3--------|
G----------------------------7^9^7~~---------------2--------|
D---------------------------(0)--------------------0--------|
A-----------------------------------------------------------|
E---10---8-8-7-5---7-8-7-5----------------------------------|

            
            
Suggest correction
Creating personal tab
Creating personal tab
You can edit any tab online and save it as your Personal.

You can edit, replace or remove any tab part or add personal notes – all changes will be seen only by you.

Personal tabs can be accessed anytime from any device, even offline.
Learn more »
comments
print report bad tab
5 comments total. Showing first comments.
0 reply
giu_ri 10 Jun 15, 2006 12:18 AM

i always thought it was A -> D in the intro/verse/chorus, however it doesn't make too much of a difference to D -> G, you can play it in whatever key. Nice tab overall

0 reply
gardengrove 10 Aug 30, 2006 05:53 AM

but how to do the actual verse?

0 reply
nocturne81 71 Sep 10, 2006 08:21 PM

The song is definitely D to G. There are a bunch of tabs that are decent for the verse. There's a lot of little variations on the picking in the verse that would be impossible to tab out completely. See some of the higher rated tabs for info on this stuff.
Chris

guest
Wanna post a correction for this tab? Suggest correction