Oops, an error
Loading. Please wait.
We have Chord Pro version of What I Got.
It's the closest thing you can get to the original song and it has interactive parts. Check out the tab »
×
by Sublime
285,443 views 405 this week
9 commentsread comments
1 2 3 4 5
x 48
add to favorites
×
Save as Personal and add changes to this tab that will be seen only by you. Learn more ›
×
You can save this tab as Personal to edit and correct it or add notes. All changes will be seen only by you. Learn more »
launch autoscroll
font size
0
reset
how to read this tab
guitar tuner
backing track
0:00
0:00
edit
Autoscroll
slow
fast
+/-
esc
set tempo
stop
Author
Difficulty
intermediate
Artist: Sublime
Song: What I Got
Album: Sublime
Words and Music By: Brad Nowell, Eric Wilson, and Floyd Gaugh
Tabbed By: Kevin Grimes (Kevinjgrimes15@aol.com)

[Intro]
Rhy. Fig. 1                      End Rhy. Fig. 1
(Gtr. 1) (acoustic)
     D                    G
e|----------------------------------------------|
B|-----------3----------------------3-----------|
G|---2-------------0h2----------0---------0h2---|
D|---0----0--------0------------0---------0-----|  
A|----------------------------------------------|
E|------------------------3---------------------|

[Riff A]
(Gtr. 2) (acoustic)
               1/4bend        \/\/\/\/\/\
e|------------------------------------------------------------------------|
B|-------------6^-----------------------------7-----5----3---3------------|
G|-------5--7--------7---5--5h7---------------7-----5----4---4------------|
D|----7-------------------------------------------------------------------|
A|------------------------------------------------------------------------|
E|------------------------------------------------------------------------|

                                                               End Riff
A
                                                        fullbend
e|----------------------10------------------------------------------------|
B|--------------10h12--------12---12p10---13--12---10---------------------|
G|--11p----h12------------------------------------------12^----x--x---0---|
D|-------------------------------------------------------------x--x---0---|
A|------------------------------------------------------------------------|
E|------------------------------------------------------------------------|

[Coda]
      D                      G             D
e|-------------2---------------------3--------------------------2---------|
B|-------------------3---------------3---------3--------------------3-----|
G|----------2-----------2--------------------------2--------2-----------2-|
D|----0--------------------------0---------0-----------0------------------|
A|------------------------------------------------------------------------|
E|---------------------------3--------------------------------------------|

     G7                                    D                         G
e|---1----1----1------1----1----1--------------------2--------------------|
B|---0----0----0------0----0----0---------------------------3-------------|
G|---0----0----0------0----0----0----------------2--------------2---------|
D|---0-------------------------------------0------------------------------|
A|---2--------------------------------------------------------------------|
E|---3---------------------------------------------------------------3----|

                                                            End
[Coda]
                    D
e|----------------------------2---------------------------1---------------|
B|--------3---------3---------------3---------------------0---------------|
G|------------2-----2-----2-------------2-----------0-----0----------2----|
D|---0--------------0-------------------------------0-----0----------0----|
A|--------------------------------------------------2---------------------|
E|--------------------------------------------3---------------------------|

[Rhy. Fig. 2]

    D            C          G           D            C          G
e|------------------------------------------------------------------------|
B|------------3----------------3------------------3----------------3------|
G|-------2----------0------------------------2----------0-----------------|
D|--0----0------------------0-----------0----0------------------0---------|
A|---------------3----------------0h3----------------3----------------0h3-|
E|---------------------3-----------------------------------3--------------|

    D            C          G           D            C          G
e|------------------------------------------------------------------------|
B|------------3----------------3------------------3----------------3------|
G|-------2----------0------------------------2----------0-----------------|
D|--0----0------------------0-----------0----0------------------0---------|
A|---------------3----------------0h3----------------3----------------0h3-|
E|---------------------3-----------------------------------3--------------|

                        End Rhy. Fig. 2

e|------------------------------------|
B|------------------------------------|
G|---2--------------------------------|
D|---0--------------------------------|
A|------------------------------------|
E|------------------------------------|

[Outro]
(Gtr. 1)
      D               G                  D               G7
e|------------------------------------------------------1--1--1----1p0----|
B|----3-----3-----------------3--------3-----3----------0--0--0----0------|
G|----2----------0--0--0------0--------2----------0--0--0--0--0----0------|
D|----0----------0--0--0---------------0----------0--0--------------------|
A|------------------x--------------------------------2--------------------|
E|------------------3-----3--------3-----------------3--------------------|

[Outro] (cont.)        (slower: tempo = 88)                         Fade
Out
    D                                                 D
e|--2/----0-------------(0)-----------------------------------------------|
B|--3/----0-------------(0)---------------------------3-------------------|
G|--2/----0-------------(0)---------------------------2-------------------|
D|--0/------------------------------------------------0-------------------|
A|----------------------------------------------------0-------------------|
E|------------------------------------------------------------------------|

here's the pick-up into the solo...
e|--------------|
B|--------------|
G|---------5----|
D|----/7--------|
A|--------------|
E|--------------|

here's the rest
e|----------------------------------------------------------10-----|
B|------6~~~~--------------7---5---3---3-------------10h12-----12--|
G|--7---------7---5s7------7---5---4---4-------10h11---------------|
D|-----------------------------------------------------------------|
A|-----------------------------------------------------------------|
E|-----------------------------------------------------------------|

e|-----------------------------------------------------------------|
B|--12-10---13-12--10b(1/4)----------------------------------------|
G|---------------------------(1/2)br12--10-12-10-------------------|
D|-------------------------------------------------12----12--------|
A|-----------------------------------------------------------------|
E|-----------------------------------------------------------------|


************************************

| x    Dead note
| (n)  Ghost note
| h    Hammer-on
| p    Pull-off
| /    Slide up
| ~    Vibrato
| s    Slide
 
************************************

            
            
Suggest correction
Creating personal tab
Creating personal tab
You can edit any tab online and save it as your Personal.

You can edit, replace or remove any tab part or add personal notes – all changes will be seen only by you.

Personal tabs can be accessed anytime from any device, even offline.
Learn more »
comments
print report bad tab
9 comments total. Showing first comments.
+1 reply
TLG9289 352 Sep 29, 2008 08:59 AM

This is the best tabbing of this song i've seen. i can't believe no one's really caught on to it. I give it 5 Stars.

0 reply
metalsincebirth 10 Oct 05, 2008 07:24 PM

****ing amazing 5 stars

0 reply
Der_Kaiser 40 Apr 27, 2009 08:29 PM

Intro/verse and solo are spot on. When exactly do the "coda" and "rhythm figure 2" start? It's so hard to hear it on the recording.

guest
You may want to rate the tab now too:
select rating
Wanna post a correction for this tab? Suggest correction