Oops, an error
Loading. Please wait.

Work That We Do Live tab

version 2
version 2

Whole song

by Sublime
1,532 views 6 this week
no commentswrite comment
1 2 3 4 5
3 more votes to show rating
add to favorites
×
Save as Personal and add changes to this tab that will be seen only by you. Learn more ›
×
You can save this tab as Personal to edit and correct it or add notes. All changes will be seen only by you. Learn more »
launch autoscroll
font size
0
reset
how to read this tab
guitar tuner
edit
Autoscroll
slow
fast
+/-
esc
set tempo
stop
-----------------------------------------------------------------------------
                          Work That We Do - Sublime
-----------------------------------------------------------------------------
E-mail: ajk1016@hotmail.com

Tuning: Standard
Album: Stand By Your Van

The chords for the verse are A minor and D minor. listen to the song and use
upstrokes top 3 strings ebg when playing Am at certain parts.

Intro
e|---------------------------------------------------------------------------|
B|---------------------------------------------------------------------------|
G|---------------------------------------------------------------------------|
D|---------------------------------------------------------------------------|
A|-----------3-5-5-3-5-3---------3-5~----------------------------------------|
E|---5-5-5-5--------------3-5~-----------------------------------------------|

e|-------------------------------------------------------5-------------------|
B|-------------------------------------------------5-7^--5-------------------|
G|--------------------------------------5-5--------5-7^----7p5---5-7/9-------|
D|--------------------------------5h6h7-----7~--/7-------------7-------------|
A|-----------3-5-5-3-5-3---5/7-----------------------------------------------|
E|---5-5-5-5-----------------------------------------------------------------|
                            Dm      Am    Dm Am
e|--------------------------5-5-----5--5--5--5-------------------------------|
B|----8-----7-----6-----5---6-6-----5--5--6--5-------------------------------|
G|--9---9-8---8-7---7-6-----7-7-----5--5--7--5-------------------------------|
D|--------------------------7-7-----7--7--7----------------------------------|
A|--------------------------5-5-----7--7--5----------------------------------|
E|--------------------------5-5-----5--5--5----------------------------------|

Repeat Am Dm Am through the song

************************************

| /   slide up
| \   slide down
| h   hammer-on
| p   pull-off
| ~   vibrato
| +   harmonic
| x   Mute note
| b   Bend
| pb  Pre-bend
| br  Bend release
| pbr Pre-bend release
| brb Bend release bend

************************************

            
            
Suggest correction
Creating personal tab
Creating personal tab
You can edit any tab online and save it as your Personal.

You can edit, replace or remove any tab part or add personal notes – all changes will be seen only by you.

Personal tabs can be accessed anytime from any device, even offline.
Learn more »
Give kudos to tab author, rate the tab!
1 2 3 4 5
comments
print report bad tab
guest
You may want to rate the tab now too:
select rating
Wanna post a correction for this tab? Suggest correction