Oops, an error
Loading. Please wait.

Panic bass

version 1
version 1

Whole song

3,443 views 6 this week
1 commentread comment
1 2 3 4 5
x 7
add to favorites
×
Save as Personal and add changes to this tab that will be seen only by you. Learn more ›
×
You can save this tab as Personal to edit and correct it or add notes. All changes will be seen only by you. Learn more »
launch autoscroll
font size
0
reset
guitar tuner
backing track
0:00
0:00
edit
Autoscroll
slow
fast
+/-
esc
set tempo
stop
Author
Intro:
G|------------------------------------|
D|------------------------------------|
A|--4-7-3--4-7-3--4-7-7-7-4-7-4-3-----|
E|------------------------------------|

Verse:
G|--------------------------------------|
D|--------------------------------------|
A|--------------------------------------|
E|--1-1-1-1-1-1-1-1-4-4-4-4-4-4-4-4-----|X3

G|--------------------|
D|--------------------|
A|--3-3-3-3-4-4-5-----|
E|--------------------|

G|--------------------------------------|
D|--------------------------------------|
A|--------------------------------------|
E|--1-1-1-1-1-1-1-1-4-4-4-4-4-4-4-4-----|X3

G|--------------------|
D|--------------------|
A|--3-3-3-3-4-4-5-----|
E|--------------------| X2

1st Chorus:

G|-----------------------------------------------------------------------------|
D|-----------------------------------------------------------------------------|
A|------------3-3-3-3--3----------4-4-4-4------------3-3-3-3--3---------4--4---|
E|--4-4-4-4--4----------1-1-1-1--1---------4-4-4-4--4----------1-1-1-1---------|

Verse:
G|--------------------------------------|
D|--------------------------------------|
A|--------------------------------------|
E|--1-1-1-1-1-1-1-1-4-4-4-4-4-4-4-4-----|X3

G|--------------------|
D|--------------------|
A|--3-3-3-3-4-4-5-----|
E|--------------------|

G|--------------------------------------|
D|--------------------------------------|
A|--------------------------------------|
E|--1-1-1-1-1-1-1-1-4-4-4-4-4-4-4-4-----|X3

G|--------------------|
D|--------------------|
A|--3-3-3-3-4-4-5-----|
E|--------------------| X2

2nd Chorus:
G|-----------------------------------------|   -------------------------------------|
D|-----------------------------------------|   -------------------------------------|
A|------------3-3-3-3--3----------4-4-4-4--|   -----------3-3-3-3--3---------4--4---|
E|--4-4-4-4--4----------1-1-1-1--1---------|X3 -4-4-4-4--4----------1-1-1-1---------|

During guitar solo:
G|--------------------------------------|
D|--------------------------------------|
A|--------------------------------------|
E|--1-1-1-1-1-1-1-1-4-4-4-4-4-4-4-4-----|X3

G|--------------------|
D|--------------------|
A|--3-3-3-3-4-4-5-----|
E|--------------------|

G|--------------------------------------|
D|--------------------------------------|
A|--------------------------------------|
E|--1-1-1-1-1-1-1-1-4-4-4-4-4-4-4-4-----|X3

G|--------------------|
D|--------------------|
A|--3-3-3-3-4-4-5-----|
E|--------------------| X2

G|------------------------------------|
D|------------------------------------|
A|--4-7-3--4-7-3--4-7-7-7-4-7-4-3-----|
E|------------------------------------|

Ending chorus:

G|-------------------------|
D|-------------------------|
A|--------3333-3------4444-|
E|--4444-4------1111-1-----|X4

G|--------------------------------------|
D|--------------------------------------|
A|--------------------------------------|
E|--1-1-1-1-1-1-1-1-4-4-4-4-4-4-4-4-----|X3

G|--------------------------------------|
D|--------------------------------------|
A|------------------------0-------------|
E|--1-1-1-1-1-1-1-1-4--1----------------|

            
            
Suggest correction
Creating personal tab
Creating personal tab
You can edit any tab online and save it as your Personal.

You can edit, replace or remove any tab part or add personal notes – all changes will be seen only by you.

Personal tabs can be accessed anytime from any device, even offline.
Learn more »
comments
print report bad tab
1 comment total.
0 reply
NTM 10 Nov 08, 2011 07:47 AM

In all honesty, this could use a lot of work. It might have some of the basic structure, but seriously, it's Sublime bass, there's just way way more to it.

I suppose it might help someone get started though.

guest
You may want to rate the tab now too:
select rating
Wanna post a correction for this tab? Suggest correction