Oops, an error
Loading. Please wait.

Panic Acoustic bass

version 2
version 2

Whole song

238 views 6 this week
no commentswrite comment
1 2 3 4 5
3 more votes to show rating
add to favorites
×
Save as Personal and add changes to this tab that will be seen only by you. Learn more ›
×
You can save this tab as Personal to edit and correct it or add notes. All changes will be seen only by you. Learn more »
launch autoscroll
font size
0
reset
guitar tuner
backing track
0:00
0:00
edit
Autoscroll
slow
fast
+/-
esc
set tempo
stop
Author
Difficulty
//I tabbed this part from the following YouTube video: /watch?v=2MgRCg6IG7o and part
from ear. I am not claiming that this tab is accurate to the video, but it sounds pretty
close to the song. I also do not claim that I made the video. Refer to the video for 
accurate strumming.//

Intro

G|---------------------------------------------------------------|
D|---------------------------------------------------------------|
A|---4---7---3-3-3---4---7---3-3-3---4---7-7-7-7---4---3---------|
E|---------------------------------------------------------------|

Verse (as much as needed)

G|---------------------------------------------------------------|
D|-----------------6-6-6-6---------------------------------------|
A|---8-8--8-8-8--------------6-6-6-------------------------------|
E|-------8------8-^----------------------------------------------|
                  |
(You may want to add an extra 8 here on E)

Pre-Chorus (Refer to song)

G|---------------------------------------------------------------|
D|---------------------------------------------------------------|
A|---3-3-3-3-3---4-4---7-7-7---3-3-3-3-3---4-4-4---7-7-7---------|
E|---------------------------------------------------------------|

Chorus

G|---------------------------------------------------------------|
D|---------------------------------------------------------------|
A|-------------3-3-3-3-------------------4-4-4-4-4-4-------------|
E|---4-4-4-4-------------1-1-1-1-1-1-1---------------------------|
(The strumming here changes with each time, refer to the song or play what sounds good!)

Song order:

Intro
Verse
Pre-Chorus
Verse
Pre-Chorus x2
Chorus
Verse
Pre-Chorus x2
Chorus x2
Verse (Guitar Solo pt.1)
Pre-Chorus
Verse (Guitar Solo pt.2)
Pre-Chorusx2
Intro
Chorusx4
Verse to outro

Eric Wilson is an amazing bassist, so copying/tabbing him/playing his work is very hard!
Hope that's what someone out there was looking for! For corrections
schiavenato@gmail.com. Good luck!

| /  slide up
| \  slide down
| h  hammer-on
| p  pull-off
| ~  vibrato
| +  harmonic
| x  Mute note

            
            
Suggest correction
Creating personal tab
Creating personal tab
You can edit any tab online and save it as your Personal.

You can edit, replace or remove any tab part or add personal notes – all changes will be seen only by you.

Personal tabs can be accessed anytime from any device, even offline.
Learn more »
Give kudos to tab author, rate the tab!
1 2 3 4 5
comments
print report bad tab
guest
You may want to rate the tab now too:
select rating
Wanna post a correction for this tab? Suggest correction