Oops, an error
Loading. Please wait.

Flicker tab

version 1
version 1

Whole song

406 views 3 this week
2 commentsread comments
1 2 3 4 5
1 last vote to show rating
add to favorites
×
Save as Personal and add changes to this tab that will be seen only by you. Learn more ›
×
You can save this tab as Personal to edit and correct it or add notes. All changes will be seen only by you. Learn more »
launch autoscroll
font size
0
reset
how to read this tab
guitar tuner
edit
Autoscroll
slow
fast
+/-
esc
set tempo
stop
Submersed: Flicker

Transcribed by: mysticguitar77

Facebook: https://www.facebook.com/MysticGuitar77
YouTube Channel: https://www.youtube.com/user/MysticGuitar77

Date last modified: December 20, 2015

Tuning: Drop D (D,A,D,G,B,E)

Intro (clean)
E|-------1-1h3p1-----------0---5-5-----7-------8-------10-----|
B|-----1---------1-------0-0---5---5-----5-------5--------5---|
G|---2-------------2---1-------5-----------5-------5--------5-|
D|-3-----------------2---------7------------------------------|
A|-----------------------------------0-------0-------0--------|
D|------------------------------------------------------------|
                           ^ strum with upstroke

E|-------1-1h3p1-----0-------0---0--------------------------|
B|-----1---------1-----0-----0---3--------------------------|
G|---2-------------2-----1-------2--------------------------|
D|-3-----------------------2-----3----2-3p2---2-3p2---2-3p2-|
A|----------------------------------0-------0-------0-------|
D|----------------------------------------------------------|
                             ^   ^ strum with upstrokes

E|-------1-1h3p1-----------0---5-5-----7-------8-------7h8p7-----|
B|-----1---------1-------0-0---5---5-----5-------5-----------5---|
G|---2-------------2---1-------5-----------5-------5-----------5-|
D|-3-----------------2---------7---------------------------------|
A|-----------------------------------0-------0-------0-----------|
D|---------------------------------------------------------------|
                           ^ strum with upstroke

E|-------1-1h3p1-----0-------0---0~-|
B|-----1---------1-----0-----0---3~-|
G|---2-------------2-----1-------2~-|
D|-3-----------------------2-----3~-|
A|----------------------------------|
D|----------------------------------|
                             ^   ^ strum with upstrokes

Riff 1 (clean)   "A star fades in space, as a candle flickers..."
E|-----------------------------------------------------------------|
B|-----------------------------------------------------------------|
G|-----------------------------------------------------------------|
D|----7--7-7-6-6-----10~-------10-------9------7--7-7-6-6-----/14~-|
A|----3--3-3-2-2-x-x-7~------7----7---5---5----3--3-3-2-2-x-x-/10~-|
D|-3--3--3-3-2-2-x-x-7~----7--------5-------3--3--3-3-2-2-x-x-/10~-|

          "Live our lives with grace, as our candles flicker..."
E|-------------------------------------------------------------0-------------------------|
B|-------------------------------------------------------------0-------------------------|
G|-------------------------------------------------------------0-------------------------|
D|----7--7-7-6-6-----10~-------10-------9------7--7-7-6-6-----/14~--------7--7-7-6-6-----|
A|----3--3-3-2-2-x-x-7~------7----7---5---5----3--3-3-2-2-x-x-/10~--------3--3-3-2-2-x-x-|
D|-3--3--3-3-2-2-x-x-7~----7--------5-------3--3--3-3-2-2-x-x-/10~-----3--3--3-3-2-2-x-x-|

Riff 2 (distortion)   "Burning out of trace..."
E|-------------------------------------------------------------------------|
B|-------------------------------------------------------------------------|
G|-------------------------------------------------------------------------|
D|-14--14--14-14-14-12-12--12-12-12-12-12--12--12-12-12-10-10--10-10-10-10-|
A|-10--10--10-10-10-10-10--10-10-10-10-8---8---8--8--8--8--8---8--8--8--8--|
D|-10--10--10-10-10-10-10--10-10-10-10-8---8---8--8--8--8--8---8--8--8--8--|

Fill 1
E|-----------------------------------|
B|-----------------------------------|
G|-5-----5-----5-----5-7b8r7-5-------|
D|---7-----7-----7-------------7-----|
A|-----7-----7-----7-------------7-0-|
D|-----------------------------------|
   * * * * * * * * *

Riff 3   "Choose your words, choose them wise..."
E|---------------------------------------------------------|
B|---------------------------------------------------------|
G|---------------------------------------------------------|
D|-7--7-7-7--7-7--7-7--7-7-7-7-3--3-3-3--3-3--3-3--3-3-3-3-|
A|-7--7-7-7--7-7--7-7--7-7-7-7-3--3-3-3--3-3--3-3--3-3-3-3-|
D|-7--7-7-7--7-7--7-7--7-7-7-7-3--3-3-3--3-3--3-3--3-3-3-3-|

E|---------------------------------------------------------|
B|---------------------------------------------------------|
G|-5--5-5-5--5-7--7-7--7-7-7-7-----------------------------|
D|-5--5-5-5--5-5--5-5--5-5-5-5-5--5-5-7--7-7--5-5--6-6-6-6-|
A|-3--3-3-3--3-3--3-3--3-3-3-3-5--5-5-5--5-5--5-5--6-6-6-6-|
D|-----------------------------5--5-5-5--5-5--5-5--6-6-6-6-|

Play Riff 3 x2   "Take my life, take my faith..."

Fill 2 (clean)
E|-------------------0~------------------------|
B|-------------------0~------------------------|
G|-------------------0~------------------------|
D|----7--7-7-6-6-----10~-------7--7-7-6-6------|
A|----3--3-3-2-2-x-x-7~--------3--3-3-2-2------|
D|-3--3--3-3-2-2-x-x-7~-----3--3--3-3-2-2-rest-|

Play Riff 1 x1   "But I'm happy here, as the plot grows thicker..."

Riff 1 alteration:
E|------------------------------------------------------------------------------------------|
B|------------------------------------------------------------------------------------------|
G|------------------------------------------------------------------------------------------|
D|----7--7-7-6-6-----10~-------10-------9------7--7-7-6-6-----/14~----------14\12---12\10---|
A|----3--3-3-2-2-x-x-7~------7----7---5---5----3--3-3-2-2-x-x-/10~-------10-----------------|
D|-3--3--3-3-2-2-x-x-7~----7--------5-------3--3--3-3-2-2-x-x-/10~----10----------10------0-|

Rest of the verse remains the same as the previous one.

Play Riff 2 x1   "Passing with the years..."

Fill 3 (distortion)
E|--------------------------8-------|
B|------------------------------10\-|
G|-5-----5-----5-----5---/7---7-----|
D|---7-----7-----7-----7------------|
A|-----7-----7-----7----------------|
D|----------------------------------|
   * * * * * * * * * * *

Play Riff 3 x2   "Choose your words, choose them wise..."

Riff 3 ending:
E|---------------------|
B|---------------------|
G|---------------------|
D|-7~------------------|
A|-7~------------------|
D|-7~------------------|

Riff 4 (clean w/ flanger)
E|----8---7h8p7----------------------------------------------3-----3-----|
B|--------------8--------------------------------------------------------|
G|----------------9-----9---7h9p7----------5---4b5r4-----4h5---4h5---4h5-|
D|-/7---7------------/7---7-------10-9--/5---5-------5-------------------|
A|-----------------------------------------------------7-----------------|
D|-----------------------------------------------------------------------|

Play Riff 4 x2

Riff 5 (distortion)
E|-----20----19h20p19-----------------------------------------------------------------15-------15-------|
B|--------------------20--------------------------------------------------------------------------------|
G|-----------------------21------21----19h21p19------------17----16b17r16-------16h17----16h17----16h17-|
D|-/19----19-----------------/19----19----------22-21--/17----17----------17----------------------------|
A|---------------------------------------------------------------------------19-------------------------|
D|------------------------------------------------------------------------------------------------------|

Play Riff 5 x2
Play Riff 3 x4   "Choose your words, choose them wise..."

Ending
E|-----------------------------------|
B|-----------------------------------|
G|-----------------------------------|
D|-7~--------------------------------|
A|-7~--------------------------------|
D|-7~--------------------------------|

Enjoy!!





            
            
Suggest correction
Creating personal tab
Creating personal tab
You can edit any tab online and save it as your Personal.

You can edit, replace or remove any tab part or add personal notes – all changes will be seen only by you.

Personal tabs can be accessed anytime from any device, even offline.
Learn more »
Give kudos to tab author, rate the tab!
1 2 3 4 5
comments
print report bad tab
2 comments total.
+1 reply
natadams149 137 Dec 30, 2015 12:33 PM

Thanks for this! I've already learned the song thanks to your cover video, it really helped me get it down. This might be my favorite Submersed song to play

guest
You may want to rate the tab now too:
select rating
Wanna post a correction for this tab? Suggest correction