Oops, an error
Loading. Please wait.

Hollow tab

version 5
version 5

Whole song

Interactive

99 views 1 this week
no commentswrite comment
1 2 3 4 5
3 more votes to show rating
add to favorites
×
Save as Personal and add changes to this tab that will be seen only by you. Learn more ›
×
You can save this tab as Personal to edit and correct it or add notes. All changes will be seen only by you. Learn more »
launch autoscroll
font size
0
reset
how to read this tab
guitar tuner
edit
Autoscroll
slow
fast
+/-
esc
set tempo
stop
A revised version of stigno89's Hollow Tab (ver 4) based on my findings and watching
guitar covers of it. 

INTRO (clean):

Db|--------------------------------------------------
Ab|--------------------------------------------------
Fb|-2-------2-------------5----------------7---------
Cb|---3-------3-------------5----------------5p0-----
Gb|-----5-------5------3------3p0------5-------------
Cb|-----------------3---------------5----------------

Db|---------------------------------------------------
Ab|---------------------------------------------------
Fb|-2-------2--------------5----------------7---------
Cb|---3-------3---5----------5----------------5p0-----
Gb|-----5-------5-------3------3p0------5-------------
Cb|------------------3---------------5----------------

Db|--------------------------------------------------
Ab|--------------------------------------------------
Fb|-2-------2-------------5----------------7---------
Cb|---3-------3-------------5----------------5p0-----
Gb|-----5-------5------3------3p0------5-------------
Cb|-----------------3---------------5----------------


VERSE (distortion) Guitar 1:
Guitar 2 plays the intro over and over again 

Db|---------------------------------------|
Ab|---------------------------------------|
Fb|---------------------------------------|
Cb|---------------------------------------|
Gb|-----------5v------------3-3-X-3h5-----|
Cb|--0-00-000-----3-33-333----------------|
     . .. ...     . .. ...

Db|---------------------------------------|
Ab|---------------------------------------|
Fb|---------------------------------------|
Cb|------------------------2h3p2p0--------|
Gb|-----------5v-------------------3p0-3h5|
Cb|--0-00-000-----3-33-333----------------|
     . .. ...     . .. ...

Db|---------------------------------------|
Ab|---------------------------------------|
Fb|---------------------------------------|
Cb|-------------7---7---------------------|
Gb|-----------5---5------------3-3-X-3h5--|
Cb|--0-00-000--------3-33-333-------------|
     . .. ...        . .. ...

Db|---------------------------------------|
Ab|---------------------------------------|
Fb|---------------------------------------|
Cb|------------------------------12/------|
Gb|-----------<5>-----------3----12/------|
Cb|--0-00-000-----3-33-333-------12/------|
     . .. ...     . .. ...

Guitar 2 joins in with guitar 1:

Db|---------------------------------------|
Ab|---------------------------------------|
Fb|---------------------------------------|
Cb|--0-00-000-----3-33-333----------------|
Gb|--0-00-000-5v--3-33-333--3-3-X-3h5-----|
Cb|--0-00-000-----3-33-333----------------|
     . .. ...     . .. ...

Db|----------------------------------------------------------------|
Ab|----------------------------------------------------------------|
Fb|----------------------------------------------------------------|
Cb|--0-00-000-----3-33-333--2h3p2p0-----------0-00-000-----7---7---|
Gb|--0-00-000-5v--3-33-333----------3p0-3h5---0-00-000---5---5-----|
Cb|--0-00-000-----3-33-333--------------------0-00-000-------------|
     . .. ...     . .. ...                    . .. ...

Db|--------------------------------------------------------------|
Ab|--------------------------------------------------------------|
Fb|--------------------------------------------------------------|
Cb|--3-33-333--------------0-00-000------3-33-333----------------|
Gb|--3-33-333--3-3-X-3h5---0-00-000-5v---3-33-333--3-3-X-3h5-----|
Cb|--3-33-333--------------0-00-000------3-33-333----------------|
     . .. ...              . .. ...      . .. ...

PRECHORUS (clean):
Db|--------------------------------------------------|
Ab|-------------------------------------------<5>----|
Fb|---------------17---17-17171717--1717--12--<5>----|
Cb|--14-15--14-15------15-15151515--1515--12--<5>----|
Gb|--------------------15-15151515--1515--11--<5>----|
Cb|--------------------15-15151515--1515-------------|


CHORUS (distortion):

Db|----------------------------------------------------|
Ab|-3-33-3-3------------7-77-7-7--8-88-8-8-------------|
Fb|-2-22-2-2--5-55-5-5--5-55-5-5--7-77-7-7------5h7----|
Cb|-0-00-0-0--5-55-5-5--3-33-3-3--5-55-5-5--5h7--------|
Gb|-0-00-0-0--3-33-3-3--3-33-3-3--5-55-5-5-------------|
Cb|---------------------3-33-3-3--5-55-5-5-------------|

Db|----------------------------------------------------|
Ab|-3-33-3-3------------7-77-7-7--8-88-8-8-------------|
Fb|-2-22-2-2--5-55-5-5--5-55-5-5--7-77-7-7-------------|
Cb|-0-00-0-0--5-55-5-5--3-33-3-3--5-55-5-5-------------|
Gb|-0-00-0-0--3-33-3-3--3-33-3-3--5-55-5-5-------------|
Cb|---------------------3-33-3-3--5-55-5-5-------------|

Intro:

VERSE (part 2) X2:

Guitar 2:
This should last for 2 run throughs of Guitar 1's first part
Db|--------------------------------------------------|
Ab|---------------------------6~---------------------|
Fb|------7~-------------7~----5~---------------------|
Cb|-0~---x~---3~--------4~----3~---------------------|
Gb|-0~---5~---3~---3~---5~----3~----3b---------------|
Cb|-0~--------3~-------------------------------------|

Guitar 1:
Db|--------------------------------------------------|
Ab|--------------------------------------------------|
Fb|--------------------------555-5-------------------|
Cb|-----5p0-3p0-2p0-----3p0--333-3--555-5------------|
Gb|-00--------------3p0------333-3--333-3------------|
Cb|-00-----------------------333-3--555-5------------|

Both:
Db|--------------------------------------------------|
Ab|--------------------------------------------------|
Fb|--------------------------555-5---------5h7-------|
Cb|-----5p0-3p0-2p0-----3p0--333-3--555-5------------|
Gb|-00--------------3p0------333-3--333-3------------|
Cb|-00-----------------------333-3--555-5------------|


PRECHORUS:
REPEAT CHORUS X2:

Db|---------------------------------------------------|
Ab|---------------------------------------------------|
Fb|---------------------------------------------------|
Cb|-----55-7-----1010-8-----88-7-----77-5-----5-5/7---|
Gb|---------------------------------------------------|
Cb|--00--------0---------0---------0--------0---------|

Db|--------------------------------------------------------------|
Ab|--------------------------------------------------------------|
Fb|----------------------------------------10p8p7-10p8p7--12p10--|
Cb|-----55-7-----1010-8-----88-7-----77-5------------------------|
Gb|--------------------------------------------------------------|
Cb|--00--------0----------0--------0-----------------------------|

Db|-----------------------------------------------------------------------|
Ab|-----------------------------------------------------------------------|
Fb|-----------------------------------------------------------------------|
Cb|-----55-7-----1010-8-----88-7-----77-5-----5-5/7--222222-333333-555555-|
Gb|--------------------------------------------------222222-333333-555555-|
Cb|--00--------0----------0--------0--------0--------222222-333333-555555-|


"You can make me..."
Db|--------------------------------------------------------------------|
Ab|------------------------------------------------6666-7777-----------|
Fb|-----5555--7777-5555-7777------------------5555-5555-7777------5h7--|
Cb|-----5555--5555-3333-5555------------------5555-3333-5555--5h7------|
Gb|-----3333--5555-3333-5555------------------3333-3333-5555-----------|
Cb|--0--------5555-3333-5555--0/15\0---0---0-------3333-5555-----------|


CHORUS:
Db|-------------------------------------------------------|
Ab|--3-33-3----------7-77-7--8-88-8-----------------------|
Fb|--2-22-2--5-55-5--5-55-5--7-77-7--12h14p12/10-12p10/7--|
Cb|--0-00-0--5-55-5--3-33-3--5-55-5-----------------------|
Gb|--0-00-0--3-33-3--3-33-3--5-55-5-----------------------|
Cb|------------------3-33-3--5-55-5-----------------------|

Db|------------------------------------|
Ab|--3-33-3----------7-77-7--8-88-8----|
Fb|--2-22-2--5-55-5--5-55-5--7-77-7----|
Cb|--0-00-0--5-55-5--3-33-3--5-55-5----|
Gb|--0-00-0--3-33-3--3-33-3--5-55-5----|
Cb|------------------3-33-3--5-55-5----|

Db|-------------------------------------------------|
Ab|-------------------------------------------------|
Fb|----------------------------------555-5----------|
Cb|----------------------------------333-3--555-5---|
Gb|-----7h8---7h8---7h8---7h8---7h8--333-3--333-3---|
Cb|---0-----0-----0-----0-----0------333-3--555-5---| X2
      .     .     .     .     .

Db|---------------------------------------------------------|
Ab|---------------------------------------------------------|
Fb|------------------------------------------555-5----------|
Cb|------------------------------------------333-3--555-5---|
Gb|---10h12---10h12---10h12---10h12---10h12--333-3--333-3---|
Cb|-0-----0-----0-----0-----0-------0--------333-3--555-5---|
    .     .     .     .     .       .

Db|--------------------------------------------------------------------------------|
Ab|--------------------------------------------------------------------------------|
Fb|--------------------------------------------------------------------------------|
Cb|--------------------------------------------------------------------------------|
Gb|---10h12---10h12---10h12---10h12---10h12---8888-10101010-12121212-15151515------|
Cb|-0-----0-----0-----0-----0-------0------------------------------------------0-0-|
    .     .     .     .     .       .                                          . .

            
            
Suggest correction
Creating personal tab
Creating personal tab
You can edit any tab online and save it as your Personal.

You can edit, replace or remove any tab part or add personal notes – all changes will be seen only by you.

Personal tabs can be accessed anytime from any device, even offline.
Learn more »
Give kudos to tab author, rate the tab!
1 2 3 4 5
comments
print report bad tab
guest
You may want to rate the tab now too:
select rating
Wanna post a correction for this tab? Suggest correction