Oops, an error
Loading. Please wait.

To Peace tab

version 1
version 1

Whole song

4,208 views 1 this week
2 commentsread comments
1 2 3 4 5
x 7
add to favorites
×
Save as Personal and add changes to this tab that will be seen only by you. Learn more ›
×
You can save this tab as Personal to edit and correct it or add notes. All changes will be seen only by you. Learn more »
launch autoscroll
font size
0
reset
how to read this tab
guitar tuner
edit
Autoscroll
slow
fast
+/-
esc
set tempo
stop
This is my first full tab i hope its good.

Song starts off with some feedback

Intro x2
e:/--------------------------------------------------------------------------|
B:/--------------------------------------------------------------------------|
G:/--------------------------------------------------4h6h4h0-----------------|
D:/--2-02--4b--02-2-02--4b--02--55--7-5-7--55--4h5h4-------------------------|
A:/--2-02------02-2-02------02--55---------55--------------------------------|
D:/--2-02------02-2-02------02--55---------55--------------------------------|

Verse Rythms really easy to figure out x4
e:/--------------------------------------------------------------------------|
B:/--------------------------------------------------------------------------|
G:/--12------7------9--------------------------------------------------------|
D:/--12------7------9--------------------------------------------------------|
A:/--10------5------7--------------------------------------------------------|
D:/--10------5------7--------------------------------------------------------|

Pre Chorus
e:/--------------------------------------------------------------------------|
B:/--------------------------------------------------------------------------|
G:/--------------------------------------------------------------------------|
D:/-22222222--555555555555---------------------------------------------------|
A:/-22222222--555555555555---------------------------------------------------|
D:/-22222222--555555555555---------------------------------------------------|
              ............

Chorus
e:/--------------------------------------------------------------------------|
B:/--------------------------------------7-----------------------------------|
G:/----------------------------------7-9---7---------------------------------|
D:/-5-5-0--2-2-22-2-22-0--5-5--2-2--------------0-5-5-0-2-2-22-2-22-0-5-5-0--|
A:/-5-5-0--2-2-22-2-22-0--5-5--2-2--------------0-5-5-0-2-2-22-2-22-0-5-5-0--|
D:/-5-5-0--2-2-22-2-22-0--5-5--2-2--------------0-5-5-0-2-2-22-2-22-0-5-5-0--|
               ..   ..                                      ..   ..
e:/--------------------------------------------------------------------------|
B:/--------------------------------------------------------------------------|
G:/--------------------------------------------------------------------------|
D:/--22222-------------------------------------------------------------------|
A:/--22222-------------------------------------------------------------------|
D:/--22222-------------------------------------------------------------------|

Verse x4

Pre-Chorus

Bridge x4

e:/--------------------------------------------------------------------------|
B:/--------------------10----------------------------------------------------|
G:/-----7-9--------7-9-------------------------------------------------------|
D:/---------7----------------------------------------------------------------|
A:/--------------------------------------------------------------------------|
D:/--------------------------------------------------------------------------|

Chorus

Outro
e:/--------------------------------------------------------------------------|
B:/--------------------------------------------------------------------------|
G:/---------------------------------------------------4h6h4h0----------------|
D:/--2-02--4b--02-2-02--4b-02------55--7-5-7-55-4h5h4------------------------|
A:/--2-02------02-2-02-----02------55--------55------------------------------|
D:/--2-02------02-2-02-----02------55--------55------------------------------|

e:/--------------------------------------------------------------------------|
B:/--------------------------------------------------------------------------|
G:/----------------------------------------------------7h9h7h0---------------|
D:/--2-02--4b--02-2-02--4b-02------55---7-5-7-55-4h5h4-----------------------|
A:/--2-02------02-2-02-----02------55---------55-----------------------------|
D:/--2-02------02-2-02-----02------55---------55-----------------------------|

Then End with this
e:/--------------------------------------------------------------------------|
B:/--------------------------------------------------------------------------|
G:/--------------------------------------------------------------------------|
D:/--257-0~~~~~~-------------------------------------------------------------|
A:/--257-0~~~~~~-------------------------------------------------------------|
D:/--257-0~~~~~~-------------------------------------------------------------|
     ...

Key
. Palm Muted
b Bend
h Hammer-on
~ Let note ring

            
            
Suggest correction
Creating personal tab
Creating personal tab
You can edit any tab online and save it as your Personal.

You can edit, replace or remove any tab part or add personal notes – all changes will be seen only by you.

Personal tabs can be accessed anytime from any device, even offline.
Learn more »
comments
print report bad tab
2 comments total.
+1 reply
IamJonsCranium 130 Dec 24, 2005 04:07 PM

im going to try to get this code thing right so i can show you how to do the intro.
[CODE]
e|--------------------------------------------------|
B|--------------------------------------------------|
G|--------------------------------------------------|
D|-2-02-4-02-2-02-4-02----7p4-7-7p4-----4h5p4\2-0---|
A|-2-02---02-2-02---02-0------------5h7-------------|
D|-2-02---02-2-02---02-0-------0--------------------|
[CODE/]
that's how i play it anyway. it might be a little 'bare bones,' but it sounds better than the tabs here. i'll also give you the chords i use. i'm not by any means saying these are what they play (for the intro i am saying that), but it goes with the music. the chords on this tab dont.

verse chords (drop D still)
0 0 5
3 0 8
2 0 7
0 2 5
0 2 5
0 2 5

enjoy. go to UGO.com or click on the bottom right of the main page here to get to ugo.com, and look for submersed. they play this song acoustic there in a video.

+1 reply
Dave1991 10 Oct 06, 2008 05:35 AM

you had the first half correct...
e:/-----------------------------
B:/-----------------------------
G:/-----------------------------
D:/--2-02--4b--02-2-02--4b--02--
A:/--2-02------02-2-02------02--
D:/--2-02------02-2-02------02--
the second half goes as follows...
-------------------------------
-------------------------------
-------------------------------
---55--7-5-7--7\4-4-4h5p4\2p0--
---55--------------------------
---55--------------------------

guest
Wanna post a correction for this tab? Suggest correction