Oops, an error
Loading. Please wait.

Unconcerned Tab

version 1
version 1

Intro

Whole song

432 views 1 this week
4 commentsread comments
1 2 3 4 5
2 more votes to show rating
add to favorites
launch autoscroll
font size
0
reset
how to read this tab
guitar tuner
×
Best way to learn
"Unconcerned"
Autoscroll
slow
fast
+/-
esc
set tempo
stop
Author
I just did the intro and verse because im to lazy and busy to do the rest.
Fell free to use this for your own complete version of the song because i
am pretty sure it's all right.

Tuning: Standard a drop whole step (DGCFAD)

Intro/Verse
D|-------------------------------------------------------------------|
A|---------------------------0---------------------------------------|
F|-------------------------------------------------------------------|
C|------4/6---6----6----6-----4----------4h6------6-------6---6b76---|
G|----2-------------------------2------4-----4---------------------7-|
D|--0-------0---0----0----0-------0--2---------2----2/5-5---5--------|
Suggest correction
Give kudos to tab author, rate the tab!
1 2 3 4 5
comments
print report bad tab
4 comments total. Showing first comments.
0 reply
Pageismyhero 20 Mar 16, 2005 07:00 PM

im correcting my own tab: The second 4 on the G string should be in between the second 2 on the low D string and the 6 on the C string. It's only a slight change and should look like this:
D|-------------------------------------------------------------------|
A|---------------------------0---------------------------------------|
F|-------------------------------------------------------------------|
C|------4/6---6----6----6-----4----------4h6---6----------6---6b76---|
G|----2-------------------------2------4---------4-----------------7-|
D|--0-------0---0----0----0-------0--2-------2------2/5-5---5--------|

0 reply
Pageismyhero 20 Mar 16, 2005 07:00 PM

go to intro version two for correct version

0 reply
Pageismyhero 20 Mar 28, 2005 07:00 PM

never mind. they didn't post it

guest
You may want to rate the tab now too:
select rating
Wanna post a correction for this tab? Suggest correction