Oops, an error
Loading. Please wait.

Hate tab

363 views 1 this week
no commentswrite comment
1 2 3 4 5
2 more votes to show rating
add to favorites
×
Save as Personal and add changes to this tab that will be seen only by you. Learn more ›
×
You can save this tab as Personal to edit and correct it or add notes. All changes will be seen only by you. Learn more »
launch autoscroll
font size
0
reset
how to read this tab
guitar tuner
edit
Autoscroll
slow
fast
+/-
esc
set tempo
stop
Author
#----------------------------------PLEASE NOTE--------------------------------#
#This file is the author's own work and represents their interpretation of the#
#song. You may only use this file for private study, scholarship, or research.#
#-----------------------------------------------------------------------------#

Author/Artist: Sub7even
Title: Hate
Album: Love Chains n Rockets
Transcribed by: Jan Schuster
Email: admin@janschuster.com

Tuning: Eb Ab Db Gb Bb eb (Half Step down from standart tuning)


Intro:
######

eb|--------------------------------------------------------------------------|
Bb|--------------------------------------------------------------------------|
Gb|-----------88888888------------------8888---------------------------------|
Db|-66666666--88888888--99999999--4444--8888---------------------------------|
Ab|-66666666--66666666--99999999--4444--6666---------------------------------|
Eb|-44444444--66666666--77777777--2222---------------------------------------|

eb|--------------------------------------------------------------------------|
Bb|--------------------------------------------------------------------------|
Gb|-----------88888888-------------------------------------------------------|
Db|-66666666--88888888--99999999--4444--5555---------------------------------|
Ab|-66666666--66666666--99999999--4444--5555---------------------------------|
Eb|-44444444--66666666--77777777--2222--3333---------------------------------|


    (Drums start to play)
eb|--------------------------------------------------------------------------|
Bb|--------------------------------------------------------------------------|
Gb|-----------88888888------------------8888---------------------------------|
Db|-66666666--88888888--99999999--4444--8888---------------------------------|
Ab|-66666666--66666666--99999999--4444--6666---------------------------------|
Eb|-44444444--66666666--77777777--2222---------------------------------------|

eb|--------------------------------------------------------------------------|
Bb|--------------------------------------------------------------------------|
Gb|-----------88888888-------------------------------------------------------|
Db|-66666666--88888888--99999999--4------------------------------------------|
Ab|-66666666--66666666--99999999--4------------------------------------------|
Eb|-44444444--66666666--77777777--2------------------------------------------|


    (Second Guitar and Bass enters)
eb|--------------------------------------------------------------------------|
Bb|--------------------------------------------------------------------------|
Gb|-----------88888888------------------8888---------------------------------|
Db|-66666666--88888888--99999999--4444--8888---------------------------------|
Ab|-66666666--66666666--99999999--4444--6666---------------------------------|
Eb|-44444444--66666666--77777777--2222---------------------------------------|

eb|--------------------------------------------------------------------------|
Bb|--------------------------------------------------------------------------|
Gb|-----------88888888-------------------------------------------------------|
Db|-66666666--88888888--99999999--4444--5555---------------------------------|
Ab|-66666666--66666666--99999999--4444--5555---------------------------------|
Eb|-44444444--66666666--77777777--2222--3333---------------------------------|
				  pm........

Verse:
######

eb|--------------------------------------------------------------------------|
Bb|--------------------------------------------------------------------------|
Gb|-----------88888888------------------8888---------------------------------|
Db|-66666666--88888888--99999999--4444--8888---------------------------------|
Ab|-66666666--66666666--99999999--4444--6666---------------------------------|
Eb|-44444444--66666666--77777777--2222---------------------------------------|
    pm......................................

eb|--------------------------------------------------------------------------|
Bb|--------------------------------------------------------------------------|
Gb|-----------88888888-------------------------------------------------------|
Db|-66666666--88888888--99999999--4444--5555---------------------------------|
Ab|-66666666--66666666--99999999--4444--5555---------------------------------|
Eb|-44444444--66666666--77777777--2222--3333---------------------------------|
    pm......................................

eb|--------------------------------------------------------------------------|
Bb|--------------------------------------------------------------------------|
Gb|-----------88888888------------------8888---------------------------------|
Db|-66666666--88888888--99999999--4444--8888---------------------------------|
Ab|-66666666--66666666--99999999--4444--6666---------------------------------|
Eb|-44444444--66666666--77777777--2222---------------------------------------|

eb|--------------------------------------------------------------------------|
Bb|--------------------------------------------------------------------------|
Gb|-----------88888888-------------------------------------------------------|
Db|-66666666--88888888--99999999--4444--5555---------------------------------|
Ab|-66666666--66666666--99999999--4444--5555---------------------------------|
Eb|-44444444--66666666--77777777--2222--3333---------------------------------|


Chorus:
#######

eb|--------------------------------------------------------------------------|
Bb|--------------------------------------------------------------------------|
Gb|--------------------------------------------------------------------------|
Db|-66666666666666--99999999999999--44444444444444--88888888--999999---------|
Ab|-66666666666666--99999999999999--44444444444444--88888888--999999---------|
Eb|-44444444444444--77777777777777--22222222222222--66666666--777777---------|

eb|--------------------------------------------------------------------------|
Bb|--------------------------------------------------------------------------|
Gb|--------------------------------------------------------------------------|
Db|-66666666666666--99999999999999--44444444444444--88888888--99999-/-7------|
Ab|-66666666666666--99999999999999--44444444444444--88888888--99999-/-7------|
Eb|-44444444444444--77777777777777--22222222222222--66666666--77777-/-5------|


|----------------------other possible way to play it-------------------------|


eb|--------------------------------------------------------------------------|
Bb|--------------------------------------------------------------------------|
Gb|-----------------44444444444444------------------33333333--444444---------|
Db|-66666666666666--44444444444444--44444444444444--33333333--444444---------|
Ab|-66666666666666--22222222222222--44444444444444--11111111--222222---------|
Eb|-44444444444444------------------22222222222222---------------------------|

eb|--------------------------------------------------------------------------|
Bb|--------------------------------------------------------------------------|
Gb|-----------------44444444444444------------------33333333--44444-/--------|
Db|-66666666666666--44444444444444--44444444444444--33333333--44444-/-7------|
Ab|-66666666666666--22222222222222--44444444444444--11111111--22222-/-7------|
Eb|-44444444444444------------------22222222222222------------------/-5------|


Verse:
######

eb|--------------------------------------------------------------------------|
Bb|--------------------------------------------------------------------------|
Gb|-----------88888888------------------8888---------------------------------|
Db|-66666666--88888888--99999999--4444--8888---------------------------------|
Ab|-66666666--66666666--99999999--4444--6666---------------------------------|
Eb|-44444444--66666666--77777777--2222---------------------------------------|
    pm......................................

eb|--------------------------------------------------------------------------|
Bb|--------------------------------------------------------------------------|
Gb|-----------88888888-------------------------------------------------------|
Db|-66666666--88888888--99999999--4444--5555---------------------------------|
Ab|-66666666--66666666--99999999--4444--5555---------------------------------|
Eb|-44444444--66666666--77777777--2222--3333---------------------------------|
    pm......................................

eb|--------------------------------------------------------------------------|
Bb|--------------------------------------------------------------------------|
Gb|-----------88888888------------------8888---------------------------------|
Db|-66666666--88888888--99999999--4444--8888---------------------------------|
Ab|-66666666--66666666--99999999--4444--6666---------------------------------|
Eb|-44444444--66666666--77777777--2222---------------------------------------|

eb|--------------------------------------------------------------------------|
Bb|--------------------------------------------------------------------------|
Gb|-----------88888888-------------------------------------------------------|
Db|-66666666--88888888--99999999--4444--5555---------------------------------|
Ab|-66666666--66666666--99999999--4444--5555---------------------------------|
Eb|-44444444--66666666--77777777--2222--3333---------------------------------|


Chorus:
#######

eb|--------------------------------------------------------------------------|
Bb|--------------------------------------------------------------------------|
Gb|--------------------------------------------------------------------------|
Db|-66666666666666--99999999999999--44444444444444--88888888--999999---------|
Ab|-66666666666666--99999999999999--44444444444444--88888888--999999---------|
Eb|-44444444444444--77777777777777--22222222222222--66666666--777777---------|

eb|--------------------------------------------------------------------------|
Bb|--------------------------------------------------------------------------|
Gb|--------------------------------------------------------------------------|
Db|-66666666666666--99999999999999--44444444444444--88888888--99999-/-7------|
Ab|-66666666666666--99999999999999--44444444444444--88888888--99999-/-7------|
Eb|-44444444444444--77777777777777--22222222222222--66666666--77777-/-5------|


Bridge:
#######

eb|--------------------------------------------------------------------------|
Bb|--------------------------------------------------------------------------|
Gb|--------------------------------------------------------------------------|
Db|-6-----6/5\6-----6/5\6-----6----6----6-----6/5\6--------------------------|
Ab|-6-----6/5\6-----6/5\6-----6----6----6-----6/5\6--------------------------|
Eb|-4-----4/3\4-----4/3\4-----4----4----4-----4/3\4--------------------------|

eb|--------------------------------------------------------------------------|
Bb|--------------------------------------------------------------------------|
Gb|--------------------------------------------------------------------------|
Db|-6---6---6----6----6---6---6----6----6---6---6----6----6/5\6--------------|
Ab|-6---6---6----6----6---6---6----6----6---6---6----6----6/5\6--------------|
Eb|-4---4---4----4----4---4---4----4----4---4---4----4----4/3\4--------------|
    pm.......         pm.......         pm.......


Solo:
#####

    Play this 6 times     Fastpicking is the key!
eb|--------------------|-----------------------------------------------------|
Bb|--------------------|-----------------------------------------------------|
Gb|--------------------|-----------------------------------------------------|
Db|--------------------|-----------------------------------------------------|
Ab|--14--16-\-18-\-16--|--14-/-3-\-14----------------------------------------|
Eb|--------------------|-----------------------------------------------------|
			pm...........

    Play this 6 times     Fastpicking is the key!
eb|--------------------|-----------------------------------------------------|
Bb|--------------------|-----------------------------------------------------|
Gb|--------------------|-----------------------------------------------------|
Db|--13--15-\-19-\-15--|--13-/-3-\-13----------------------------------------|
Ab|--------------------|-----------------------------------------------------|
Eb|--------------------|-----------------------------------------------------|
			pm...........

eb|--------------------------------------------------------------------------|
Bb|--20^---19^---17^---15^---------------------------------------------------|
Gb|--------------------------------------------------------------------------|
Db|--------------------------------------------------------------------------|
Ab|--------------------------------------------------------------------------|
Eb|--------------------------------------------------------------------------|

	               		       Fastpicking
eb|-----------------------------------|-----------|--------------------------|
Bb|-----------------------------------|-----------|--------------------------|
Gb|-----------------------------------|-----------|--------------------------|
Db|--9-9-9-9-8-9-9-9-9-9-9-9-9-9-8-9--|--2-\-7----|--9-6---------------------|
Ab|-----------------------------------|-----------|--------------------------|
Eb|-----------------------------------|-----------|--------------------------|
					pm....

    (Background Guitar plays this - play this 4 times)
eb|--------------------------------------------------------------------------|
Bb|--------------------------------------------------------------------------|
Gb|--------------------------------------------------------------------------|
Db|-66666666666666666666-6/5\------------------------------------------------|
Ab|-66666666666666666666-6/5\------------------------------------------------|
Eb|-44444444444444444444-4/3\------------------------------------------------|


Chorus:
#######

eb|--------------------------------------------------------------------------|
Bb|--------------------------------------------------------------------------|
Gb|--------------------------------------------------------------------------|
Db|-66666666666666--99999999999999--44444444444444--88888888--999999---------|
Ab|-66666666666666--99999999999999--44444444444444--88888888--999999---------|
Eb|-44444444444444--77777777777777--22222222222222--66666666--777777---------|

eb|--------------------------------------------------------------------------|
Bb|--------------------------------------------------------------------------|
Gb|--------------------------------------------------------------------------|
Db|-66666666666666--99999999999999--44444444444444--88888888--99999-/-7------|
Ab|-66666666666666--99999999999999--44444444444444--88888888--99999-/-7------|
Eb|-44444444444444--77777777777777--22222222222222--66666666--77777-/-5------|


Outro:
######

eb|--------------------------------------------------------------------------|
Bb|--------------------------------------------------------------------------|
Gb|-----------88888888------------------8888---------------------------------|
Db|-66666666--88888888--99999999--4444--8888---------------------------------|
Ab|-66666666--66666666--99999999--4444--6666---------------------------------|
Eb|-44444444--66666666--77777777--2222---------------------------------------|

eb|--------------------------------------------------------------------------|
Bb|--------------------------------------------------------------------------|
Gb|-----------88888888-------------------------------------------------------|
Db|-66666666--88888888--99999999--4444--5555---6---6-------------------------|
Ab|-66666666--66666666--99999999--4444--5555---4---6-------------------------|
Eb|-44444444--66666666--77777777--2222--3333---4---4-------------------------|
					       pm

            
            
Suggest correction
Creating personal tab
Creating personal tab
You can edit any tab online and save it as your Personal.

You can edit, replace or remove any tab part or add personal notes – all changes will be seen only by you.

Personal tabs can be accessed anytime from any device, even offline.
Learn more »
Give kudos to tab author, rate the tab!
1 2 3 4 5
comments
print report bad tab
guest
You may want to rate the tab now too:
select rating
Wanna post a correction for this tab? Suggest correction